Log in

One click and you are in

Login with Facebook Login with Google

Why sign up and log in

Guitar Tabs Explorer
Cage The Elephant bass tabs for Cold cold cold

Cold Cold Cold bass tab by Cage The Elephant

Cage The Elephant bass tabs for Cold cold cold

Bass tabs

Cold Cold Cold
Cage the Elephant
Tell Me I'm Pretty
RCA Records 88875-14170-2
2015

Daniel Tichenor on bass
4/4 timing
standard tuning, key G minor			pedals: none
Intro
G:|----------------|----------------|----------------|----------------|
D:|5>-53---5>5-----|5>-53---5>5-----|5>-53---5>5-----|----------------|
A:|--5---3----5>535|--5---3----5>535|--5---3----5>535|5>--------------|
E:|----------------|----------------|----------------|----------------|
  1 & 2 & 3 & 4 & 1 & 2 & 3 & 4 & 1 & 2 & 3 & 4 & 1 & 2 & 3 & 4 &


Verse 1               x2
G:||----------------|----------------|----------------|----------------||
D:||5>-53---5>5-----|5>-53---5>5-----|5>-53--------304|5>-53---5>5-----||
A:||--5---3----5>535|--5---3----5>535|--5---3-1>15>---|--5---3----5>535||
E:||----------------|----------------|----------------|----------------||
  1 & 2 & 3 & 4 & 1 & 2 & 3 & 4 & 1 & 2 & 3 & 4 & 1 & 2 & 3 & 4 &


Prechorus
G:|----------------|----------------|----------------|----------------|
D:|5-353---3--34---|5-353---3--34---|5-353---3--34---|5-353---3-------|
A:|-5---353-35--535|-5---353-35--535|-5---353-35--535|-5---353--3-5>--|
E:|----------------|----------------|----------------|----------------|
  1 & 2 & 3 & 4 & 1 & 2 & 3 & 4 & 1 & 2 & 3 & 4 & 1 & 2 & 3 & 4 &

  (3/4)
G:|------------|
D:|------------|
A:|>----->-----|
E:|------------|
  1 & 2 & 3 &

Chorus
G:|----------------|--------3333753-|----------------|----------------|
D:|55553333-----4-4|55553333-------3|55553333-----4-4|55553333-----4-4|
A:|--------11115-5-|----------------|--------11115-5-|--------11115-5-|
E:|----------------|----------------|----------------|----------------|
  1 & 2 & 3 & 4 & 1 & 2 & 3 & 4 & 1 & 2 & 3 & 4 & 1 & 2 & 3 & 4 &

G:|----------------|
D:|55553333-----4-4|
A:|--------11115-5-|
E:|----------------|
  1 & 2 & 3 & 4 &

Fill
G:|----------------|----------------|
D:|5>-53---5>5-----|5>-53---5>5-----|
A:|--5---3----5>535|--5---3----5>535|
E:|----------------|----------------|
  1 & 2 & 3 & 4 & 1 & 2 & 3 & 4 &


Verse 2
G:|----------------|----------------|----------------|----------------|
D:|5-353---3--34---|5-353---3--34---|5-353---3--34---|5-353---3--3>---|
A:|-5---353-35--535|-5---353-35--535|-5---353-35--535|-5---353-35--535|
E:|----------------|----------------|----------------|----------------|
  1 & 2 & 3 & 4 & 1 & 2 & 3 & 4 & 1 & 2 & 3 & 4 & 1 & 2 & 3 & 4 &

G:|----------------|----------------|----------------|----------------|
D:|5>-53---5>5-----|5>-53---5>5-----|5>-53--------304|5>-53---5>5-----|
A:|--5---3----5>535|--5---3----5>535|--5---3-1>15>---|--5---3----5>535|
E:|----------------|----------------|----------------|----------------|
  1 & 2 & 3 & 4 & 1 & 2 & 3 & 4 & 1 & 2 & 3 & 4 & 1 & 2 & 3 & 4 &


Prechorus
G:|----------------|----------------|----------------|----------------|
D:|5-353---3--34---|5-353---3--34---|5-353---3--34---|5-353---3-------|
A:|-5---353-35--535|-5---353-35--535|-5---353-35--535|-5---353--3-5>--|
E:|----------------|----------------|----------------|----------------|
  1 & 2 & 3 & 4 & 1 & 2 & 3 & 4 & 1 & 2 & 3 & 4 & 1 & 2 & 3 & 4 &

  (3/4)
G:|------------|
D:|------------|
A:|>----->-----|
E:|------------|
  1 & 2 & 3 &


Chorus Reprise
G:|----------------|----------------|--------3333753-|----------------|
D:|55553333-----4-4|55553333-----4-4|55553333-------3|55553333-----4-4|
A:|--------11115-5-|--------11115-5-|----------------|--------11115-5-|
E:|----------------|----------------|----------------|----------------|
  1 & 2 & 3 & 4 & 1 & 2 & 3 & 4 & 1 & 2 & 3 & 4 & 1 & 2 & 3 & 4 &

G:|--------3333753-|----------------|------------7-7-|
D:|55553333-------3|55553333-----4-4|55555555--------|
A:|----------------|--------11115-5-|--------5555-5-5|
E:|----------------|----------------|----------------|
  1 & 2 & 3 & 4 & 1 & 2 & 3 & 4 & 1 & 2 & 3 & 4 &


Bridge
G:|----------------|----------------|----------------|----------------|
D:|----------------|5--55--53--33---|----------------|5--55--57--77---|
A:|--------5--55--5|----------------|--------5--55--5|----------------|
E:|6--66--6--------|----------------|6--66--6--------|----------------|
  1 & 2 & 3 & 4 & 1 & 2 & 3 & 4 & 1 & 2 & 3 & 4 & 1 & 2 & 3 & 4 &

           (2/4)
G:|----------------|--------|
D:|8--88-----------|--------|
A:|--------5-5-5-5-|5-5--R--|
E:|----------------|--------|
  1 & 2 & 3 & 4 & 1 & 2 &


Solo
G:|----------------|--------3333753-|----------------|----------------|
D:|55553333-----4-4|55553333-------3|55553333-----4-4|55553333-----4-4|
A:|--------11115-5-|----------------|--------11115-5-|--------11115-5-|
E:|----------------|----------------|----------------|----------------|
  1 & 2 & 3 & 4 & 1 & 2 & 3 & 4 & 1 & 2 & 3 & 4 & 1 & 2 & 3 & 4 &


Outro Chorus
G:|----------------|----------------|----------------|--------3333----|
D:|55553333-----4-4|55553333-----4-4|55553333-----4-4|55553333-----4-4|
A:|--------11115-5-|--------11115-5-|--------11115-5-|------------5-5-|
E:|----------------|----------------|----------------|----------------|
  1 & 2 & 3 & 4 & 1 & 2 & 3 & 4 & 1 & 2 & 3 & 4 & 1 & 2 & 3 & 4 &

G:|----------------|----------------|----------------|
D:|55553333-----4-4|55553333-----4-4|5!--------------|
A:|--------11115-5-|--------11115-5-|----------------|
E:|----------------|----------------|----------------|
  1 & 2 & 3 & 4 & 1 & 2 & 3 & 4 & 1 & 2 & 3 & 4 &


|| repeat between || as indicated	h hammer on		~ vibrato
/ slide up				p pull off		^ triplet
\ slide down				1. dotted note
> legato (let note ring)		11 fret one, twice
! full stop mute			11 fret eleven
R rest					x ghost note

Almost there ...

Sign in to get your own page with links to favourite songs and more. You are just one click away...

Login with Facebook Login with Google