Log in

One click and you are in

Login with Facebook Login with Google

Why sign up and log in

Guitar Tabs Explorer
Cage The Elephant bass tabs for Black madonna

Bass tabs

Intro 2 measures of drums with an accelerando, start on the 3rd measure of the song, play this intro 2x
G|---------------------------------------------------------|
D|----------------5----5-5----5-2----2-2----2------4----4--|
A|---2----2-2----2---------------------------0----0--------|
E|---------------------------------------------------------|
Verse "Soft glow on the city..."
Play this 3x
G|----------------------------------------------------------|
D|----------------5----5-5----5-2----2-2----2------4----4---|
A|---2----2-2----2---------------------------0----0---------|
E|----------------------------------------------------------|

"Climb so high, tell me how it feels..." Last time, let the last A note ring
G|----------------------------------------------------------|
D|----------------5----5-5----5-2----2-2----2---------------|
A|---2----2-2----2---------------------------0--------------|
E|----------------------------------------------------------|


Chorus "Call me when you're ready..."
Play this 2x
G|----------------------------------------------------------|
D|----------------5----5-5----5-2----2-2----2------4----4---|
A|---2----2-2----2---------------------------0----0---------|
E|----------------------------------------------------------|

"Nowhere left to run..."
G|----------------------------------------------------------|
D|----------------0-2----2-------------------0-2----2-------|
A|---2----2-2----2--------0---0-2----2-2----2--------0----0-|
E|----------------------------------------------------------|

"...ready, to be real..."
G|----------------------------------------------------------|
D|----------------5----5-5----5-2----2-2----2------4----4---|
A|---2----2-2----2---------------------------0----0---------|
E|----------------------------------------------------------|

verse 2 "On the phone..."
Play this 3x
G|----------------------------------------------------------|
D|----------------5----5-5----5-2----2-2----2------4----4---|
A|---2----2-2----2---------------------------0----0---------|
E|----------------------------------------------------------|

"Climb so high, tell me how to feel..." Last time, let the last A note ring
G|----------------------------------------------------------|
D|----------------5----5-5----5-2----2-2----2---------------|
A|---2----2-2----2---------------------------0--------------|
E|----------------------------------------------------------|


Chorus "Call me when you're ready..."
Play this 2x
G|----------------------------------------------------------|
D|----------------5----5-5----5-2----2-2----2------4----4---|
A|---2----2-2----2---------------------------0----0---------|
E|----------------------------------------------------------|

"Nowhere left to run..."
G|----------------------------------------------------------|
D|----------------0-2----2-------------------0-2----2-------|
A|---2----2-2----2--------0---0-2----2-2----2--------0----0-|
E|----------------------------------------------------------|

"...ready, to be real..."
G|----------------------------------------------------------|
D|----------------5----5-5----5-2----2-2----2------4----4---|
A|---2----2-2----2---------------------------0----0---------|
E|----------------------------------------------------------|


Solo
Play 2x
G|----------------------------------------------------------|
D|----------------5----5-5----5-2----2-2----2------4----4---|
A|---2----2-2----2---------------------------0----0---------|
E|----------------------------------------------------------|


Outro Chorus
Play this 2x
G|----------------------------------------------------------|
D|----------------5----5-5----5-2----2-2----2------4----4---|
A|---2----2-2----2---------------------------0----0---------|
E|----------------------------------------------------------|


"Nowhere left to run..."
G|----------------------------------------------------------|
D|----------------0-2----2-------------------0-2----2-------|
A|---2----2-2----2--------0---0-2----2-2----2--------0----0-|
E|----------------------------------------------------------|
"...ready, to be real..."
G|----------------------------------------------------------|
D|----------------5----5-5----5-2----2-2----2------4----4---|
A|---2----2-2----2---------------------------0----0---------|
E|----------------------------------------------------------|


Let B ring as song fades out
G|----------------------------------------------------------|
D|----------------------------------------------------------|
A|---2------------------------------------------------------|
E|----------------------------------------------------------|

Almost there ...

Sign in to get your own page with links to favourite songs and more. You are just one click away...

Login with Facebook Login with Google