Log in

One click and you are in

Login with Facebook Login with Google

Why sign up and log in

Guitar Tabs Explorer
Cage The Elephant bass tabs for Aberdeen

Bass tabs

ABERDEEN by CAGE THE ELEPHANT

Hey guys this is my first tab, I have done it all by ear so I think it is correct
(unless otherwise stated) but feel free to leave a comment if you think I have messed
some bits up

(The bass comes in at :07)

G|----------------------------------------------------|
D|----------------------------------------------------|
A|-32323232-------------------------------------------|
E|----------------------------------------------------|

(:10-:19) INTRO

G|----------------------------------------------------|
D|----------------------------------------------------|
A|------2222-33333333------2222-32323232--------------|
E|-3333---------------3333----------------------------|

(0:20-0:46) VERSE

G|----------------------------------------------------|
D|-555-7h9-------555-7h9-------555-7h9----------------|
A|---------777/5---------777h9---------7777-----------|
E|----------------------------------------------------|

G|----------------------------------------------------|
D|----------------------------------------------------|
A|-333-232323232--------------------------------------|
E|----------------------------------------------------|

G|----------------------------------------------------|
D|-555-7h9-------555-7h9-------555-7h9----------------|
A|---------777/5---------777h9---------7777-----------|
E|----------------------------------------------------|

G|----------------------------------------------------|
D|----------------------------------------------------|
A|-333-232323232--------------------------------------|
E|----------------------------------------------------|

G|----------------------------------------------------|
D|-555-7h9-------555-7h9-------555-7h9----------------|
A|---------777/5---------777h9---------7777-----------|
E|----------------------------------------------------|

G|----------------------------------------------------|
D|----------------------------------------------------|
A|-33332200-------------------------------------------|
E|----------------------------------------------------|

(0:47-1:06) CHORUS

G|----------------------------------------------------|
D|-----------2222----------------2222-----------------|
A|------2222------3333------2222------3333------------|
E|-3333----------------3333---------------------------|

G|----------------------------------------------------|
D|-----------2222-----------2222----------------------|
A|------2222------3333-----------32323232-------------|
E|-3333----------------3333---------------------------|

(1:07-1:34)VERSE

G|----------------------------------------------------|
D|-555-7h9-------555-7h9-------555-7h9----------------|
A|---------777/5---------777h9---------7777-----------|
E|----------------------------------------------------|
G|----------------------------------------------------|
D|----------------------------------------------------|
A|-333-232323232--------------------------------------|
E|----------------------------------------------------|

G|----------------------------------------------------|
D|-555-7h9-------555-7h9-------555-7h9----------------|
A|---------777/5---------777h9---------7777-----------|
E|----------------------------------------------------|

G|----------------------------------------------------|
D|----------------------------------------------------|
A|-333-232323232--------------------------------------|
E|----------------------------------------------------|

G|----------------------------------------------------|
D|-555-7h9-------555-7h9-------555-7h9----------------|
A|---------777/5---------777h9---------7777-----------|
E|----------------------------------------------------|

G|----------------------------------------------------|
D|----------------------------------------------------|
A|-33332200-------------------------------------------|
E|----------------------------------------------------|

(1:35-1:53) CHORUS

G|----------------------------------------------------|
D|-----------2222----------------2222-----------------|
A|------2222------3333------2222------3333------------|
E|-3333----------------3333---------------------------|

G|----------------------------------------------------|
D|-----------2222-----------2222----------------------|
A|------2222------3333-----------32323232-------------|
E|-3333----------------3333---------------------------|

(1:54-2:12) BRIDGE (I sorta did this on the spot but it fits in, you could just do open
E for the whole bridge if you want)

G|----------------------------------------------------|
D|----------------------------------------------------|
A|-------------3322-------------3322------------------|
E|-00X000X000X0-----00X000X000X0----------------------|

G|----------------------------------------------------|
D|----------------------------------------------------|
A|-------------3322-------------3322------------------|
E|-00X000X000X0-----00X000X000X0----------------------|

(2:14-2:19) No Bass

(2:20-2:21)

G|----------------------------------------------------|
D|----------------------------------------------------|
A|-32323232-------------------------------------------|
E|----------------------------------------------------|

(2:22-2:50) ENDING

G|----------------------------------------------------|
D|-----------2222----------------2222-----------------|
A|------2222------3333------2222------3333------------|
E|-3333----------------3333---------------------------|

G|----------------------------------------------------|
D|-----------2222-----------2222----------------------|
A|------2222------3333-----------3333-2222-33333333---|
E|-3333----------------3333---------------------------|

G|----------------------------------------------------|
D|----------------------------------------------------|
A|------2222-33333333------2222-3---------------------|
E|-3333---------------3333----------------------------|


So that's it! I hope you have enjoyed it!

h= Hammer on
/= slide

ⓘ Bass guitar tab for 'Aberdeen' by Cage The Elephant, an alternative rock band formed in 2007 from Bowling Green, USA

Almost there ...

Sign in to get your own page with links to favourite songs and more. You are just one click away...

Login with Facebook Login with Google