Guitar Tabs Explorer
Cafe Con Tequila guitar tabs for Buskando

Buskando tab


Be the first to rate

Buskando tab by Cafe Con Tequila

Guitar tabs

Print

-------------------------------------------------------------------------------
                             Buskando - Cafe Con Tequila
-------------------------------------------------------------------------------

Something like this I think

Tuning:Standard

e|------3-3---3------3-3---3-----------------------------------------------------|
B|------4-4---4------3-3---3-----------------------------------------------------|
G|------5-5---5-(2x)-3-3---3-(2x)------------------------------------------------|
D|------5-5---5------5-5---5-----------------------------------------------------|
A|------3-3---3------5-5---5-----------------------------------------------------|
E|------3-3---3------3-3---3-----------------------------------------------------|

e|--3-3---3------4-4---4------6-6---6--------------------------------------------|
B|--4-4---4------4-4---4------6-6---6--------------------------------------------|
G|--5-5---5-(2x)-5-5---5------7-7---7--------------------------------------------|
D|--5-5---5------6-6---6------8-8---8--------------------------------------------|
A|--3-3---3------6-6---6------8-8---8--------------------------------------------|
E|--3-3---3------4-4---4------6-6---6--------------------------------------------|





************************************

| /   slide up
| \   slide down
| h   hammer-on
| p   pull-off
| ~   vibrato
| +   harmonic
| x   Mute note
| b   Bend
| pb  Pre-bend
| br  Bend release
| pbr Pre-bend release
| brb Bend release bend

************************************

Comment this song and these guitar tabs

Do you have corrections, comments on the guitar tabs, thoughts about the song or a message to the author? Write them below.