Log in

One click and you are in

Login with Facebook Login with Google

Why sign up and log in

Guitar Tabs Explorer
Cacaphony tabs for Ninja

Guitar tabs

NINJA by Cacaphony

Tabbed by Argun Çakýr(tossbaga@hotmail.com)
Please put the lost hammers and pull-offs by yourself.
it needs to be arranged some.

|----------------|-------1-3-1h3-----|-----------3----|-----------------|
|-------------3-4|-3---3-------6-4-3-|-4-------4---4--|-4-------6-8-----|
|-----------5----|---3---------------|---5---5-------5|---5---5-----8---|
|-------5-6------|-------------------|-----5----------|-----5---------10|
|-3-5-6----------|-------------------|----------------|-----------------|
|----------------|-------------------|----------------|-----------------|
|
|----------------|-------------------|----------------|-----------------|
|----------------|---------1---1-----|----------------|---------4-------|
|----------------|-----------3-3-0---|----------------|-------------5---|
|----------------|-----------------3-|-5--------------|-----------------|
|----------------|-------------------|----------------|-----------------|
|----------------|-------------------|----------------|-----------------|


|--------8-----------|-6----6----------|------------|-------------------|
|------8---8-------8-|----6---6------6-|-6------6-8-|-9---8---6---4-----|
|----8-------8-7-8---|----------7--8---|------------|-------------------|
|-10-----------------|-----------------|------------|-------------------|
|--------------------|-----------------|------------|-------------------|
|--------------------|-----------------|------------|-------------------|
|
|--------------------|-----------------|------------|---4-3-4-----------|
|--------------3---4-|-3---------------|-1----------|---------6-8-------|
|-5------------------|-------------3---|------------|-------------8-----|
|--------------------|-----------------|------------|---------------10--|
|--------------------|-----------------|------------|-------------------|
|--------------------|-----------------|------------|-------------------|

|-------1-----|-4-----7-----|---------------11h15p11----------|-----|
|-3-----------|-------------|------------13---------13--------|-----|
|-------------|-------------|---------12---------------12-----|-----|
|-------------|-------------|------13---------------------13--|-----|
|-------------|-------------|14h15----------------------------|-15--|
|-------------|-------------|---------------------------------|-----|
|
|-------------|-------------|---------------------------------|-----|
|-------------|-------------|---------------------------------|-----|
|-------10----|-------------|---------------------------------|-----|
|-12----------|-12----------|---------------------------------|-----|
|-------------|-------14----|---15--------------17------------|-13--|
|-------------|-------------|---------------------------------|-----|


|-------------------------------------|--------7------------7------|---|
|----------9-----------------9--------|------8---8--------8---8----|-5-|
|-------10----10----------10----10----|----7-------7----7-------7--|---|
|----10----------10----10----------10-|-9------------9-------------|---|
|-11----------------11----------------|----------------------------|---|
|-------------------------------------|----------------------------|---|
|
|-------------------------------------|----------------------------|---|
|-------------------------------------|--------8------------8------|---|
|----------10----------------10-------|------7---7--------7---7----|---|
|-------10----10----------10----10----|----9-------9----9-------9--|-10|
|----11----------11----11----------11-|-10-----------10------------|---|
|-13----------------13----------------|----------------------------|---|


Solo (Marty)
|------------3--|-8~-----8-8-|-6----(6)-8-(8)--|
|-(5)-----5-----|------------|-----------------|
|------5--------|------------|-----------------|
|---------------|------------|-----------------|
|---------------|------------|-----------------|
|---------------|------------|-----------------|

|-(8)---------------------|---6---------------|--------------|
|-----8-(8)-6-4-6-(6)-4-6-|-8---8-(8)--(8)----|-6----8--9-10-|
|-------------------------|-------------------|--------------|
|-------------------------|-------------------|--------------|
|-------------------------|-------------------|--------------|
|-------------------------|-------------------|--------------|

|--------------------|
|-(10)--11----13-11--|
|--------------------|
|--------------------|
|--------------------|
|--------------------|

|-----------|----------------|----------------|------------|
|-----------|-------------8--|-9--8h9p8-6--8--|-9--12b(13)-|
|-12--------|-(12)----10-----|----------------|------------|
|-----------|----------------|----------------|------------|
|-----------|----------------|----------------|------------|
|-----------|----------------|----------------|------------|


|-(8)-----------|------------------|----------|------*|
|-----8-6-4-6-7-|-8--(8)-7-6-4-----|-3--------|-(3)--*|
|---------------|---------------5--|----------|------*|
|---------------|------------------|----------|------*|
|---------------|------------------|----------|------*|
|---------------|------------------|----------|------*|


Tablature Explanation
--------------------
h  = hammer-on
p  = pull-off
b  = bend
r  = bend release
/  = slide up/down
~  = vibrato

Almost there ...

Sign in to get your own page with links to favourite songs and more. You are just one click away...

Login with Facebook Login with Google