Liar Liar by Cris Cab

Liar Liar tab by Cris Cab

Guitar tabs

VERSE
E|---------------------------------------------------------------------------|
H|--5-8-5---------5-8-5------------------------------------------------------|
G|--------5-5-5-8-------5-5-5-8------7-5----------7-5------------------------|
D|-------------------------------5-8-----5-7---5-8-----5-7-------------------|
A|---------------------------------------------------------------------------|
E|---------------------------------------------------------------------------|
 -> repeat

CHORUS
E|---------------------------------------------------------------------------|
H|--5-8-5(hold)---5-8-5(hold)------8-8-6--6-6-8----------8-8-6--6-6-8--------|
G|---------5-5-----------5-5-----5----------------5-8--5--------------5-8----|
D|---------------------------------------------------------------------------|
A|---------------------------------------------------------------------------|
E|---------------------------------------------------------------------------|

VERSE (2x)
CHORUS

BRIDGE
E|----------------play|------------------------------------------------------|
H|----------------this|------------------------------------------------------|
G|--5--5----------part|--7-5-5------------7-5-5------------------------------|
D|---7--7--5-8\7--3x! |--------8-8-7-7--7-------5-7/8\7/8-7------------------|
A|--------------------|------------------------------------------------------|
E|--------------------|------------------------------------------------------|

Other versions of Liar Liar

Alternative guitar chords and tabs for Liar Liar by Cris Cab

Find guitar tabs and chords

A B C D E F G H I J K L M N O P Q R S T U V W X Y Z #