Log in

One click and you are in

Login with Facebook Login with Google

Why sign up and log in

Guitar Tabs Explorer
C418 bass tabs for Minecraft

Bass tabs

G |-------------------|-------------------|
D |-------------------|-------------------|
A |--13--11--6--9-----|--13--11--6--4-----|
E |-------------------|-------------------|x3

G |-------------------|-------------------|
D |-------------------|-------------------|
A |--13--11--6--9-----|--13--11--6-9-4--1-|
E |-------------------|-------------------|x1

G |-------------------|-------------------|
D |-------------------|-------------------|
A |--13--4--6--9------|-11--13--11--13-16-|
E |-------------------|-------------------|x1

G |-------------------|-------------------|
D |-------------------|-------------------|
A |--13--16--18--16---|--11--13--11--13---|
E |-------------------|-------------------|x1

G |-------------------|-------------------|
D |-------------------|-------------------|
A |--9--4--6--9-------|--13--11--9--4-----|
E |-------------------|-------------------|x1
-----------repeat till end of song------------
|G |-------------------|-------------------| |
|D |-------------------|-------------------| |
|A |--13--11--6--9-----|--13--11--6--4-----| |
|E |-------------------|-------------------| |
----------------------------------------------

official web page : https://c418.bandcamp.com/album/minecraft-volume-alpha

Almost there ...

Sign in to get your own page with links to favourite songs and more. You are just one click away...

Login with Facebook Login with Google