Log in

One click and you are in

Login with Facebook Login with Google

Why sign up and log in

Guitar Tabs Explorer
C.j. Ramone bass tabs for Youre the only one

Bass tabs with lyrics

Tuning: Standard (E A D G)

Key: E

Difficulty: Novice
Intro:
G|---------------------------------------|
D|---------------------------------------|
A|-------------------7-7-7-7-------------|
E|---------------------------7-7-7-7-7-7-|


Chorus:
("Baby, baby, you're the only one it's all that I can say, And baby, baby, I can't let you go But I know...")
G|----------------------------------|---------------------------------|
D|----------------------------------|---------------------------------|
A|-7-7-7-7------------------7-7-7-7-|---------7-7-7-7---------7-7-7-7-|
E|---------7-7-7-7--5-5-5-5---------|-7-7-7-7---------7-7-7-7---------|

First Verse:
("I'm sitting here all alone, Trying to write you a letter, Just to make me feel better")
G|-----------------------------------|------------------------------------|
D|-----------------------------------|------------------------------------|
A|-7-7-7-7--7-7-7-7------------------|-------------------7-7-7-7--7-7-7-7-|
E|------------------7-7-7-7--7-7-7-7-|-7-7-7-7--7-7-7-7-------------------|

("But I know that it's much too late And you're already gone, I can feel my heart break Feel it coming on")
G|----------------------------------|-------------------------------------------|
D|----------------------------------|-------------------------------------------|
A|-7-7-7-7------------------7-7-7-7-|---------7-7-7-7---------------------------|
E|---------7-7-7-7--7-7-7-7---------|-7-7-7-7---------7-7-7-7--5-5-5-5--5-5-5-5-|


Chorus:
("Baby, baby, you're the only one it's all that I can say, And baby, baby, I can't let you go But I know...")
G|----------------------------------|---------------------------------|
D|----------------------------------|---------------------------------|
A|-7-7-7-7------------------7-7-7-7-|---------7-7-7-7---------7-7-7-7-|
E|---------7-7-7-7--5-5-5-5---------|-7-7-7-7---------7-7-7-7---------|

Verse:
("I tried everything I know how to make you come my way, You tell me I'm wasting time But I love you anyway")
G|----------------------------------|----------------------------------|
D|----------------------------------|----------------------------------|
A|-7-7-7-7------------------7-7-7-7-|-7-7-7-7------------------7-7-7-7-|
E|---------7-7-7-7--7-7-7-7---------|---------7-7-7-7--7-7-7-7---------|


Chorus:
("Baby, baby, you're the only one it's all that I can say, And baby, baby, I can't let you go But I know...")
G|----------------------------------|---------------------------------|
D|----------------------------------|---------------------------------|
A|-7-7-7-7------------------7-7-7-7-|---------7-7-7-7---------7-7-7-7-|
E|---------7-7-7-7--5-5-5-5---------|-7-7-7-7---------7-7-7-7---------|


Chorus:
("Baby, baby, you're the only one that's all that I can say, And baby baby, I can't let you go But I know...")
G|----------------------------------|---------------------------------|
D|----------------------------------|---------------------------------|
A|-7-7-7-7------------------7-7-7-7-|---------7-7-7-7---------7-7-7-7-|
E|---------7-7-7-7--5-5-5-5---------|-7-7-7-7---------7-7-7-7---------|


Bridge:
("How can you treat me, treat me this way? When you know Yeah, you know, I'll never be the same")
G|----------------------------------|-----------------------------------|
D|------------------------7---------|-----------------------------------|
A|------------------7-7-7---7-7-7-7-|------------------5-5-5-5--5-5-5-5-|
E|-7-7-7-7--7-7-7-7-----------------|-7-7-7-7--7-7-7-7------------------|


Chorus:
("Baby, baby, you're the only one it's all that I can say, And baby, baby, I can't let you go But I know...")
G|----------------------------------|---------------------------------|
D|----------------------------------|---------------------------------|
A|-7-7-7-7------------------7-7-7-7-|---------7-7-7-7---------7-7-7-7-|
E|---------7-7-7-7--5-5-5-5---------|-7-7-7-7---------7-7-7-7---------|


Outro Chorus:
("Baby, baby, you're the only one that's all that I can say, And baby baby, I can't let you go But I know...")
G|----------------------------------|----------------------------------------------|
D|----------------------------------|----------------------------------------------|
A|-7-7-7-7------------------7-7-7-7-|---------7-7-7-7---------5-5-5-5--5-5-5-5--7--|
E|---------7-7-7-7--5-5-5-5---------|-7-7-7-7---------7-7-7-7----------------------|

↓ Add and view comments below ↓

What do you think about this song and these tabs?

Add your comments, questions, rant or a thumbs up below.

Almost there ...

Sign in to get your own page with links to favourite songs and more. You are just one click away...

Login with Facebook Login with Google