Log in

One click and you are in

Login with Facebook Login with Google

Why sign up and log in

Guitar Tabs Explorer
C.j. Ramone bass tabs for Why

Bass tabs

Tuning: Standard (E A D G)

Key: E

Difficulty: Novice
Intro:
G|-------------------------------------|-------------------------------------|
D|-------------------------------------|-------------------------------------|
A|-------------------------------------|-------------------------------------|
E|-0-0-0-0--3-3-3-3--7-7-7-7--6-6--5-5-|-0-0-0-0--3-3-3-3--7-7-7-7--6-6--5-5-|

G|-------------------------------------|-------------------------------------|
D|-------------------------------------|-------------------------------------|
A|-------------------------------------|-------------------------------------|
E|-0-0-0-0--3-3-3-3--7-7-7-7--6-6--5-5-|-0-0-0-0--3-3-3-3--7-7-7-7--6-6--5-5-|


Verse 1:
("Why why why why why why why why Why why why why... Why did ya do it? Why did ya do it to me ")
G|----------------------------------|----------------------------------|
D|----------------------------------|----------------------------------|
A|-7-7-7-7-7-7-7-7--7-7-7-7-7-7-7-7-|-7-7-7-7-7-7-7-7--7-7-7-7-7-7-7-7-|
E|----------------------------------|----------------------------------|

("Why did ya do it? Why did ya do it to me? Why why why Why why why Why why why why why why why why")
G|----------------------------------|-----------------|
D|----------------------------------|-----------------|
A|-7-7-7-7-7-7-7-7--7-7-7-7-7-7-7-7-|-7-7-7-7-7-7-7-7-|
E|----------------------------------|-----------------|


Chorus:
                  ("Why ")                 ("Why ")
G|----------------------------------------|----------------------------------------|
D|----------------------------------------|----------------------------------------|
A|----------------------------------------|----------------------------------------|
E|-0-0--3-3--5-5--6-6--7-7--6-6--5-5--3-3-|-0-0--3-3--5-5--6-6--7-7--6-6--5-5--3-3-|

                  ("Why ")                 ("Why ")
G|----------------------------------------|----------------------------------------|
D|----------------------------------------|----------------------------------------|
A|----------------------------------------|----------------------------------------|
E|-0-0--3-3--5-5--6-6--7-7--6-6--5-5--3-3-|-0-0--3-3--5-5--6-6--7-7--6-6--5-5--3-3-|

Verse 2:
("How how how how how how how how How how how how ... How could ya do it? How could ya do it to me ")
G|----------------------------------|----------------------------------|
D|----------------------------------|----------------------------------|
A|-7-7-7-7-7-7-7-7--7-7-7-7-7-7-7-7-|-7-7-7-7-7-7-7-7--7-7-7-7-7-7-7-7-|
E|----------------------------------|----------------------------------|

("How could ya do it? How could ya do it to me? How how how How how how How how how how how how how how")
G|----------------------------------|----------------------------------|
D|----------------------------------|----------------------------------|
A|-7-7-7-7-7-7-7-7--7-7-7-7-7-7-7-7-|-7-7-7-7-7-7-7-7--7-7-7-7-7-7-7-7-|
E|----------------------------------|----------------------------------|


Chorus 2:
                  ("Why ")                 ("Why ")
G|----------------------------------------|----------------------------------------|
D|----------------------------------------|----------------------------------------|
A|----------------------------------------|----------------------------------------|
E|-0-0--3-3--5-5--6-6--7-7--6-6--5-5--3-3-|-0-0--3-3--5-5--6-6--7-7--6-6--5-5--3-3-|

                  ("Why ")                 ("Why ")
G|----------------------------------------|----------------------------------------|
D|----------------------------------------|----------------------------------------|
A|----------------------------------------|----------------------------------------|
E|-0-0--3-3--5-5--6-6--7-7--6-6--5-5--3-3-|-0-0--3-3--5-5--6-6--7-7--6-6--5-5--3-3-|

G|----------------------------------------|----------------------------------------|
D|----------------------------------------|----------------------------------------|
A|-0-0--3-3--5-5--6-6--7-7--6-6--5-5--3-3-|-0-0--3-3--5-5--6-6--7-7--6-6--5-5--3-3-|
E|----------------------------------------|----------------------------------------|

                  ("Why ")                 ("Why ")
G|----------------------------------------|----------------------------------------|
D|----------------------------------------|----------------------------------------|
A|----------------------------------------|----------------------------------------|
E|-0-0--3-3--5-5--6-6--7-7--6-6--5-5--3-3-|-0-0--3-3--5-5--6-6--7-7--6-6--5-5--3-3-|


Verse 1:
("Why why why why why why why why Why why why why... Why did ya do it? Why did ya do it to me ")
G|----------------------------------|----------------------------------|
D|----------------------------------|----------------------------------|
A|-7-7-7-7-7-7-7-7--7-7-7-7-7-7-7-7-|-7-7-7-7-7-7-7-7--7-7-7-7-7-7-7-7-|
E|----------------------------------|----------------------------------|

("Why did ya do it? Why did ya do it to me? Why why why Why why why Why why why why why why why why")
G|----------------------------------|-----------------|
D|----------------------------------|-----------------|
A|-7-7-7-7-7-7-7-7--7-7-7-7-7-7-7-7-|-7-7-7-7-7-7-7-7-|
E|----------------------------------|-----------------|


Chorus:
                  ("Why ")                 ("Why ")
G|----------------------------------------|----------------------------------------|
D|----------------------------------------|----------------------------------------|
A|----------------------------------------|----------------------------------------|
E|-0-0--3-3--5-5--6-6--7-7--6-6--5-5--3-3-|-0-0--3-3--5-5--6-6--7-7--6-6--5-5--3-3-|

                  ("Why ")                 ("Why ")
G|----------------------------------------|----------------------------------------|-------|
D|----------------------------------------|----------------------------------------|-------|
A|----------------------------------------|----------------------------------------|-------|
E|-0-0--3-3--5-5--6-6--7-7--6-6--5-5--3-3-|-0-0--3-3--5-5--6-6--7-7--6-6--5-5--3-3-|-0-----|

↓ Add and view comments below ↓

What do you think about this song and these tabs?

Add your comments, questions, rant or a thumbs up below.

Almost there ...

Sign in to get your own page with links to favourite songs and more. You are just one click away...

Login with Facebook Login with Google