Log in

One click and you are in

Login with Facebook Login with Google

Why sign up and log in

Guitar Tabs Explorer
C.j. Ramone bass tabs for Understand me

Bass tabs

Tuning: Standard (E A D G)

Key: A

Difficulty: Novice
Intro:
G|-------------------------------|-------------------------------|
D|-------------------------------|-------------------------------|
A|-------------------------------|-------------------------------|
E|-------------------------------|-------------------------------|

G|-----7------7------7----------|-----7------7-----------------------------------|
D|-7-7----7-7----7-7----7-7-7-7-|-7-7----7-7----2-2-2-2-2-2-2-2--2-2-2-2-2-2-2-2-|
A|------------------------------|------------------------------------------------|
E|------------------------------|------------------------------------------------|


Chorus/Verse:
("I Really Don't Care, Understand Me ")
G|-------------------------------------------------------------------|
D|-------------------------------------------------------------------|
A|----------------------------------7-7-7-7-7-7-7-7--7-7-7-7-7-7-7-7-|
E|-5-5-5-5-5-5-5-5--5-5-5-5-5-5-5-5----------------------------------|

("I'm A Believer Anyway")
G|-------------------------------------------------------------------|
D|-------------------------------------------------------------------|
A|-5-5-5-5-5-5-5-5--7-7-7-7-7-7-7-7----------------------------------|
E|----------------------------------5-5-5-5-5-5-5-5--5-5-5-5-5-5-5-5-|

("Someday You'll Know, Then It Will Be Alright...")
G|---------------------------------------------------------------------|
D|----------------------------------7-7-7-7--6-6-6-6--4-4-4-4--2-2-2-2-|
A|-5-5-5-5-5-5-5-5--5-5-5-5-5-5-5-5------------------------------------|
E|---------------------------------------------------------------------|

("It's The Way You Say Goodbye")
G|-----------------------------------------------------------------|
D|-----------------------------------------------------------------|
A|-5-5-5-5-5-5-5-5--7-7-7-7-7-7-7-7----------------7-7-7---7-7-7-7-|
E|----------------------------------5-5-5-5-5-5-5------------------|


Chorus/Verse:
("You Think You're So Smart, Understand Me ")
G|-------------------------------------------------------------------|
D|-------------------------------------------------------------------|
A|----------------------------------7-7-7-7-7-7-7-7--7-7-7-7-7-7-7-7-|
E|-5-5-5-5-5-5-5-5--5-5-5-5-5-5-5-5----------------------------------|

("Things Can't Be How You Hoped They'd Be")
G|-------------------------------------------------------------------|
D|-------------------------------------------------------------------|
A|-5-5-5-5-5-5-5-5--7-7-7-7-7-7-7-7----------------------------------|
E|----------------------------------5-5-5-5-5-5-5-5--5-5-5-5-5-5-5-5-|

("Cuz What You Don't Know Is They'll Never Be Alright...")
G|---------------------------------------------------------------------|
D|----------------------------------7-7-7-7--6-6-6-6--4-4-4-4--2-2-2-2-|
A|-5-5-5-5-5-5-5-5--5-5-5-5-5-5-5-5------------------------------------|
E|---------------------------------------------------------------------|

("As Long As You Say You Don't Believe")
G|-------------------------------------------------------------------|
D|-------------------------------------------------------------------|
A|-5-5-5-5-5-5-5-5--7-7-7-7-7-7-7-7----------------------------------|
E|----------------------------------5-5-5-5-5-5-5-5--5-5-5-5-5-5-5-5-|


Bridge:
("And It May Take Your Whole Life Time")
G|-------------------------------------------------------------------|
D|----------------------------------7-7-7-7-7-7-7-7--7-7-7-7-7-7-7-7-|
A|-5-5-5-5-5-5-5-5--5-5-5-5-5-5-5-5----------------------------------|
E|-------------------------------------------------------------------|

("But You'll Find Out In The End, Oh Yeah")
G|--------------------------------------------------------------------|
D|----------------------------------4-4-4-4--2-2-2-2--0-0-0-0-0-0-0-0-|
A|-5-5-5-5-5-5-5-5--7-7-7-7-7-7-7-7-----------------------------------|
E|--------------------------------------------------------------------|

("You Were The One Who Was So Wrong")
G|-----------------------------------------------------------------|
D|-----------------------------------------------------------------|
A|-5-5-5-5-5-5-5-5--7-7-7-7-7-7-7-7----------------7-7-7---7-7-7-7-|
E|----------------------------------5-5-5-5-5-5-5------------------|


Solo:
G|-------------------------------------------------------------------|
D|-------------------------------------------------------------------|
A|----------------------------------7-7-7-7-7-7-7-7--7-7-7-7-7-7-7-7-|
E|-5-5-5-5-5-5-5-5--5-5-5-5-5-5-5-5----------------------------------|

G|-------------------------------------------------------------------|
D|-------------------------------------------------------------------|
A|-5-5-5-5-5-5-5-5--7-7-7-7-7-7-7-7----------------------------------|
E|----------------------------------5-5-5-5-5-5-5-5--5-5-5-5-5-5-5-5-|

G|---------------------------------------------------------------------|
D|----------------------------------7-7-7-7--6-6-6-6--4-4-4-4--2-2-2-2-|
A|-5-5-5-5-5-5-5-5--5-5-5-5-5-5-5-5------------------------------------|
E|---------------------------------------------------------------------|

G|-------------------------------------------------------------------|
D|-------------------------------------------------------------------|
A|-5-5-5-5-5-5-5-5--7-7-7-7-7-7-7-7----------------------------------|
E|----------------------------------5-5-5-5-5-5-5-5--5-5-5-5-5-5-5-5-|


Bridge:
("And It May Take Your Whole Life Time")
G|-------------------------------------------------------------------|
D|----------------------------------7-7-7-7-7-7-7-7--7-7-7-7-7-7-7-7-|
A|-5-5-5-5-5-5-5-5--5-5-5-5-5-5-5-5----------------------------------|
E|-------------------------------------------------------------------|

("But You'll Find Out In The End, Oh Yeah")
G|--------------------------------------------------------------------|
D|----------------------------------4-4-4-4--2-2-2-2--0-0-0-0-0-0-0-0-|
A|-5-5-5-5-5-5-5-5--7-7-7-7-7-7-7-7-----------------------------------|
E|--------------------------------------------------------------------|

("You Were The One Who Was So Wrong")
G|----------------------------------|------------------------------|
D|----------------------------------|------------------------------|
A|-5-5-5-5-5-5-5-5--7-7-7-7-7-7-7-7-|-----5------5------5----------|
E|----------------------------------|-5-5----5-5----5-5----5-5-5-5-|


Outro:
G|------------------------------|-----7------7------7----------|-----7------7------7----------|
D|------------------------------|-7-7----7-7----7-7----7-7-7-7-|-7-7----7-7----7-7----7-------|
A|-----5------5------5----------|------------------------------|------------------------------|
E|-5-5----5-5----5-5----5-5-5-5-|------------------------------|------------------------------|

↓ Add and view comments below ↓

What do you think about this song and these tabs?

Add your comments, questions, rant or a thumbs up below.

Almost there ...

Sign in to get your own page with links to favourite songs and more. You are just one click away...

Login with Facebook Login with Google