Log in

One click and you are in

Login with Facebook Login with Google

Why sign up and log in

Guitar Tabs Explorer
C.j. Ramone bass tabs for Sick of it

Bass tabs

Tuning: Standard (E A D G)

Key: E

Difficulty: Novice
Intro:
G|-------------------------|-------------------------|-------------------------|-------------------------|
D|-------------------------|-------------------------|-------------------------|-------------------------|
A|---------2-2---------3-3-|---------2-2---------3-3-|---------2-2---------3-3-|---------2-2---------3-3-|
E|-0-0-0-0-----3-3-3-3-----|-0-0-0-0-----3-3-3-3-----|-0-0-0-0-----3-3-3-3-----|-0-0-0-0-----3-3-3-3-----|


Verse:
("I Gave You Everything And Didn't Mind A Bit")
G|---------------------------------|---------------------------------|
D|---------------------------------|---------------------------------|
A|---------2-2-2-2---------3-3-3-3-|---------2-2-2-2---------3-3-3-3-|
E|-0-0-0-0---------3-3-3-3---------|-0-0-0-0---------3-3-3-3---------|

("But You're So Impossible And I'm Sick Of It")
G|---------------------------------|---------------------------------|
D|---------------------------------|---------------------------------|
A|---------2-2-2-2---------3-3-3-3-|---------2-2-2-2---------3-3-3-3-|
E|-0-0-0-0---------3-3-3-3---------|-0-0-0-0---------3-3-3-3---------|

("I'm Gonna Leave You, It's Gonna Feel Real Good")
G|---------------------------------|---------------------------------|
D|---------------------------------|---------------------------------|
A|---------2-2-2-2---------3-3-3-3-|---------2-2-2-2---------3-3-3-3-|
E|-0-0-0-0---------3-3-3-3---------|-0-0-0-0---------3-3-3-3---------|

("Going Out To The City Tonight, So Fuck You")
G|---------------------------------|---------------------------------|
D|---------------------------------|---------------------------------|
A|---------2-2-2-2---------3-3-3-3-|---------2-2-2-2---------3-3-3-3-|
E|-0-0-0-0---------3-3-3-3---------|-0-0-0-0---------3-3-3-3---------|

Chorus:
("Cuz Now I'm Sick Of It- Ya Ya, And Now I'm Sick Of It- Ya Ya")
G|-------------------------|-------------------------|
D|-------------------------|-------------------------|
A|---------2-2---------3-3-|---------2-2---------3-3-|
E|-0-0-0-0-----3-3-3-3-----|-0-0-0-0-----3-3-3-3-----|

("And Now I'm Sick Of It- Ya Ya, And Now I'm Sick Of It")
G|-------------------------|-------------------------|
D|-------------------------|-------------------------|
A|---------2-2---------3-3-|---------2-2---------3-3-|
E|-0-0-0-0-----3-3-3-3-----|-0-0-0-0-----3-3-3-3-----|


Verse:
("How Much Did You Think I'd Take, From A Girl Like You")
G|---------------------------------|---------------------------------|
D|---------------------------------|---------------------------------|
A|---------2-2-2-2---------3-3-3-3-|---------2-2-2-2---------3-3-3-3-|
E|-0-0-0-0---------3-3-3-3---------|-0-0-0-0---------3-3-3-3---------|

("You Got Nothing I Like Anymore, And You're No Fun Too")
G|---------------------------------|---------------------------------|
D|---------------------------------|---------------------------------|
A|---------2-2-2-2---------3-3-3-3-|---------2-2-2-2---------3-3-3-3-|
E|-0-0-0-0---------3-3-3-3---------|-0-0-0-0---------3-3-3-3---------|

("So Don't Try And Make Me Cry, You Sound Dumb When You're Mad")
G|---------------------------------|---------------------------------|
D|---------------------------------|---------------------------------|
A|---------2-2-2-2---------3-3-3-3-|---------2-2-2-2---------3-3-3-3-|
E|-0-0-0-0---------3-3-3-3---------|-0-0-0-0---------3-3-3-3---------|

("One Day You'll Want Me Back, Ha, And I'll Laugh")
G|---------------------------------|---------------------------------|
D|---------------------------------|---------------------------------|
A|---------2-2-2-2---------3-3-3-3-|---------2-2-2-2---------3-3-3-3-|
E|-0-0-0-0---------3-3-3-3---------|-0-0-0-0---------3-3-3-3---------|


Chorus:
("Cuz Now I'm Sick Of It- Ya Ya, And Now I'm Sick Of It- Ya Ya")
G|-------------------------|-------------------------|
D|-------------------------|-------------------------|
A|---------2-2---------3-3-|---------2-2---------3-3-|
E|-0-0-0-0-----3-3-3-3-----|-0-0-0-0-----3-3-3-3-----|

("And Now I'm Sick Of It- Ya Ya, And Now I'm Sick Of It")
G|-------------------------|-------------------------|
D|-------------------------|-------------------------|
A|---------2-2---------3-3-|---------2-2---------3-3-|
E|-0-0-0-0-----3-3-3-3-----|-0-0-0-0-----3-3-3-3-----|


Bridge:
("I'm Glad That It's Over, But It's Sad In A Way")
G|----------------------------------|----------------------------------|
D|----------------------------------|----------------------------------|
A|-2-2-2-2-2-2-2-2--3-3-3-3-3-3-3-3-|-2-2-2-2-2-2-2-2--3-3-3-3-3-3-3-3-|
E|----------------------------------|----------------------------------|

("Now I See It Wasn't Meant To Be, It Wouldn't Work Out Anyway)
G|----------------------------------|----------------------------------|
D|----------------------------------|----------------------------------|
A|-2-2-2-2-2-2-2-2--3-3-3-3-3-3-3-3-|-2-2-2-2-2-2-2-2--3-3-3-3-3-------|
E|----------------------------------|----------------------------------|


Solo:
G|-------------------------|-------------------------|-------------------------|-------------------------|
D|-------------------------|-------------------------|-------------------------|-------------------------|
A|---------2-2---------3-3-|---------2-2---------3-3-|---------2-2---------3-3-|---------2-2---------3-3-|
E|-0-0-0-0-----3-3-3-3-----|-0-0-0-0-----3-3-3-3-----|-0-0-0-0-----3-3-3-3-----|-0-0-0-0-----3-3-3-3-----|


Chorus:
("And Now I'm Sick Of It- Ya Ya, And Now I'm Sick Of It- Ya Ya")
G|-------------------------|-------------------------|
D|-------------------------|-------------------------|
A|---------2-2---------3-3-|---------2-2---------3-3-|
E|-0-0-0-0-----3-3-3-3-----|-0-0-0-0-----3-3-3-3-----|

("Cuz Now I'm Sick Of It- Ya Ya, And Now I'm Sick Of It- Ya Ya")
G|-------------------------|-------------------------|
D|-------------------------|-------------------------|
A|---------2-2---------3-3-|---------2-2---------3-3-|
E|-0-0-0-0-----3-3-3-3-----|-0-0-0-0-----3-3-3-3-----|

("And Now I'm Sick Of It- Ya Ya, And Now I'm Sick Of It- Ya Ya")
G|-------------------------|-------------------------|
D|-------------------------|-------------------------|
A|---------2-2---------3-3-|---------2-2---------3-3-|
E|-0-0-0-0-----3-3-3-3-----|-0-0-0-0-----3-3-3-3-----|

("Now I'm Sick Of It- Ya Ya, Now I'm Sick Of It- Ya Ya")
G|-------------------------|-------------------------|---------|
D|-------------------------|-------------------------|---------|
A|---------2-2---------3-3-|---------2-2---------3-3-|---------|
E|-0-0-0-0-----3-3-3-3-----|-0-0-0-0-----3-3-3-3-----|-0-------|

↓ Add and view comments below ↓

What do you think about this song and these tabs?

Add your comments, questions, rant or a thumbs up below.

Almost there ...

Sign in to get your own page with links to favourite songs and more. You are just one click away...

Login with Facebook Login with Google