Log in

One click and you are in

Login with Facebook Login with Google

Why sign up and log in

Guitar Tabs Explorer
C.j. Ramone bass tabs for Shut up

Bass tabs with lyrics

Tuning: Standard (E A D G)

Key: A

Difficulty: Novice
Intro:
G|------------------------------------|
D|------------------------------------|
A|-7-7-7-7--7-7-7-7--7-7-7-7--7-7-7-7-|
E|------------------------------------|


Verse:
("If You're Not Gonna Do Something About It, Shut Up")
G|------------------------------------------------------------------|
D|------------------------------------------------------------------|
A|-----------------7-7-7-7-7-7-7-7----------------------------------|
E|-5-5-5-5-5-5-5-5-----------------5-5-5-5-5-5-5-5--5-5-5-5-5-5-5-5-|

("If You're Not Gonna Do Something About It, Shut Up")
G|------------------------------------------------------------------|
D|------------------------------------------------------------------|
A|-----------------7-7-7-7-7-7-7-7----------------------------------|
E|-5-5-5-5-5-5-5-5-----------------5-5-5-5-5-5-5-5--5-5-5-5-5-5-5-5-|

("If You're Not Gonna Do Something About It, What You Say Doesn't Matter Anyway")
G|-----------------------------------------------------------------|
D|-----------------------------------------------------------------|
A|-----------------7-7-7-7-7-7-7-7-----------------5-5-5-5-5-5-5-5-|
E|-5-5-5-5-5-5-5-5-----------------5-5-5-5-5-5-5-5-----------------|

("If You're Not Gonna Do Something About It, Shut Up")
G|------------------------------------------------------------------|
D|------------------------------------------------------------------|
A|-----------------7-7-7-7-7-7-7-7----------------------------------|
E|-5-5-5-5-5-5-5-5-----------------5-5-5-5-5-5-5-5--5-5-5-5-5-5-5-5-|

Chorus:
("S-H-U-T-U-P, That's What You Can Do For Me")
G|-------------------------------------------------------------------|
D|-------------------------------------------------------------------|
A|-5-5-5-5-5-5-5-5--7-7-7-7-7-7-7-7----------------------------------|
E|----------------------------------5-5-5-5-5-5-5-5--5-5-5-5-5-5-5-5-|

("S-H-U-T-U-P, That's What You Can Do For Me")
G|-------------------------------------------------------------------|
D|-------------------------------------------------------------------|
A|-5-5-5-5-5-5-5-5--7-7-7-7-7-7-7-7----------------------------------|
E|----------------------------------5-5-5-5-5-5-5-5--5-5-5-5-5-5-5-5-|

("You're Just A Whiny Little Creep")
G|-------------------------------------------------------------------|
D|-------------------------------------------------------------------|
A|-5-5-5-5-5-5-5-5--7-7-7-7-7-7-7-7----------------------------------|
E|----------------------------------5-5-5-5-5-5-5-5--5-5-5-5-5-5-5-5-|

("S-H-U-T-U-P, That's What You Can Do For Me")
G|--------------------------------------------------------------------|
D|--------------------------------------------------------------------|
A|-5-5-5-5-5-5-5-5--7-7-7-7-7-7-7-7--3-3-3-3-3-3-3-3--3-3-3-3-3-3-3-3-|
E|--------------------------------------------------------------------|


Verse:
("If You're Not Gonna Do Something About It, Shut Up")
G|------------------------------------------------------------------|
D|------------------------------------------------------------------|
A|-----------------7-7-7-7-7-7-7-7----------------------------------|
E|-5-5-5-5-5-5-5-5-----------------5-5-5-5-5-5-5-5--5-5-5-5-5-5-5-5-|

("If You're Not Gonna Do Something About It, Shut Up")
G|------------------------------------------------------------------|
D|------------------------------------------------------------------|
A|-----------------7-7-7-7-7-7-7-7----------------------------------|
E|-5-5-5-5-5-5-5-5-----------------5-5-5-5-5-5-5-5--5-5-5-5-5-5-5-5-|

("If You're Not Gonna Do Something About It, What You Say Doesn't Matter Anyway")
G|-----------------------------------------------------------------|
D|-----------------------------------------------------------------|
A|-----------------7-7-7-7-7-7-7-7-----------------5-5-5-5-5-5-5-5-|
E|-5-5-5-5-5-5-5-5-----------------5-5-5-5-5-5-5-5-----------------|

("If You're Not Gonna Do Something About It, Shut Up")
G|------------------------------------------------------------------|
D|------------------------------------------------------------------|
A|-----------------7-7-7-7-7-7-7-7----------------------------------|
E|-5-5-5-5-5-5-5-5-----------------5-5-5-5-5-5-5-5--5-5-5-5-5-5-5-5-|


Chorus:
("S-H-U-T-U-P, That's What You Can Do For Me")
G|-------------------------------------------------------------------|
D|-------------------------------------------------------------------|
A|-5-5-5-5-5-5-5-5--7-7-7-7-7-7-7-7----------------------------------|
E|----------------------------------5-5-5-5-5-5-5-5--5-5-5-5-5-5-5-5-|

("S-H-U-T-U-P, That's What You Can Do For Me")
G|-------------------------------------------------------------------|
D|-------------------------------------------------------------------|
A|-5-5-5-5-5-5-5-5--7-7-7-7-7-7-7-7----------------------------------|
E|----------------------------------5-5-5-5-5-5-5-5--5-5-5-5-5-5-5-5-|

("You're Just A Whiny Little Creep")
G|-------------------------------------------------------------------|
D|-------------------------------------------------------------------|
A|-5-5-5-5-5-5-5-5--7-7-7-7-7-7-7-7----------------------------------|
E|----------------------------------5-5-5-5-5-5-5-5--5-5-5-5-5-5-5-5-|

("S-H-U-T-U-P, That's What You Can Do For Me")
G|--------------------------------------------------------------------|
D|--------------------------------------------------------------------|
A|-5-5-5-5-5-5-5-5--7-7-7-7-7-7-7-7--3-3-3-3-3-3-3-3--3-3-3-3-3-3-3-3-|
E|--------------------------------------------------------------------|

Last Verse:
("If You're Not Gonna Do Something About It, Shut Up")
G|------------------------------------------------------------------|
D|------------------------------------------------------------------|
A|-----------------7-7-7-7-7-7-7-7----------------------------------|
E|-5-5-5-5-5-5-5-5-----------------5-5-5-5-5-5-5-5--5-5-5-5-5-5-5-5-|

("If You're Not Gonna Do Something About It, Shut Up")
G|------------------------------------------------------------------|
D|------------------------------------------------------------------|
A|-----------------7-7-7-7-7-7-7-7----------------------------------|
E|-5-5-5-5-5-5-5-5-----------------5-5-5-5-5-5-5-5--5-5-5-5-5-5-5-5-|

("If You're Not Gonna Do Something About It, What You Say Doesn't Matter Anyway")
G|-----------------------------------------------------------------|
D|-----------------------------------------------------------------|
A|-----------------7-7-7-7-7-7-7-7-----------------5-5-5-5-5-5-5-5-|
E|-5-5-5-5-5-5-5-5-----------------5-5-5-5-5-5-5-5-----------------|

("If You're Not Gonna Do Something About It, Shut Up")
G|-----------------------------------------------------------------|
D|-----------------------------------------------------------------|
A|-----------------7-7-7-7-7-7-7-7-----------------5-5-5-5-5-5-5-5-|
E|-5-5-5-5-5-5-5-5-----------------5-5-5-5-5-5-5-5-----------------|

("If You're Not Gonna Do Something About It, Shut Up")
G|----------------------------------------------------|
D|----------------------------------------------------|
A|-----------------7-7-7-7-7-7-7-7-------------5------|
E|-5-5-5-5-5-5-5-5-----------------5-5-5-5-5-5----5---|

↓ Add and view comments below ↓

What do you think about this song and these tabs?

Add your comments, questions, rant or a thumbs up below.

Almost there ...

Sign in to get your own page with links to favourite songs and more. You are just one click away...

Login with Facebook Login with Google