Log in

One click and you are in

Login with Facebook Login with Google

Why sign up and log in

Guitar Tabs Explorer
C.j. Ramone bass tabs for Ghost ring

Bass tabs with lyrics

Tuning: Standard (E A D G)

Key: A

Difficulty: Novice
Intro:
G|-----------------------------------------|
D|-----------0-0--1-1------------0-0--1-1--|
A|-0-0--3-3-------------0-0--3-3-----------|
E|-----------------------------------------|

G|-------------------------------------------------------------------|
D|---------3-3-3-3----------2-2-2-2----------------------------------|
A|-0-0-0-0---------3-3-3-3----------1-1-1-1-1-1-1-1--0-0-0-0-0-0-0-0-|
E|-------------------------------------------------------------------|

G|-------------------------------------------------------------------|
D|---------3-3-3-3----------2-2-2-2----------------------------------|
A|-0-0-0-0---------3-3-3-3----------1-1-1-1-1-1-1-1--0-0-0-0-0-0-0-0-|
E|-------------------------------------------------------------------|


Verse:
("You Gotta See It, See The View, Gotta See It Through My Ghost Ring")
G|------------------------------------------------------------------|
D|----------------------------------3-3-3-3---------5-5-5-5---------|
A|-0-0-0-0-0-0-0-0--0-0-0-0-0-0-0-0---------3-3-3-3---------5-5-5-5-|
E|------------------------------------------------------------------|

("It'll Make You Feel All Safe And Warm Inside")
G|------------------------------------------------------------------|
D|----------------------------------3-3-3-3---------5-5-5-5---------|
A|-0-0-0-0-0-0-0-0--0-0-0-0-0-0-0-0---------3-3-3-3---------5-5-5-5-|
E|------------------------------------------------------------------|

("You Gotta See It, See The View, Gotta See It Through My Ghost Ring")
G|------------------------------------------------------------------|
D|----------------------------------3-3-3-3---------5-5-5-5---------|
A|-0-0-0-0-0-0-0-0--0-0-0-0-0-0-0-0---------3-3-3-3---------5-5-5-5-|
E|------------------------------------------------------------------|

("It's The View You Wanna Have When The Bullets Fly")
G|------------------------------------------------------------------|
D|----------------------------------3-3-3-3---------5-5-5-5---------|
A|-0-0-0-0-0-0-0-0--0-0-0-0-0-0-0-0---------3-3-3-3---------5-5-5-5-|
E|------------------------------------------------------------------|

Bridge:
                               ("Bullets Fly")
G|-------------------------------------------------------------------|
D|---------3-3-3-3----------2-2-2-2----------------------------------|
A|-0-0-0-0---------3-3-3-3----------1-1-1-1-1-1-1-1--0-0-0-0-0-0-0-0-|
E|-------------------------------------------------------------------|

G|-------------------------------------------------------------------|
D|---------3-3-3-3----------2-2-2-2----------------------------------|
A|-0-0-0-0---------3-3-3-3----------1-1-1-1-1-1-1-1--0-0-0-0-0-0-0-0-|
E|-------------------------------------------------------------------|


Verse:
("You Never Ever Ever Ever Wanna Be Inside My Ghost Ring")
G|------------------------------------------------------------------|
D|----------------------------------3-3-3-3---------5-5-5-5---------|
A|-0-0-0-0-0-0-0-0--0-0-0-0-0-0-0-0---------3-3-3-3---------5-5-5-5-|
E|------------------------------------------------------------------|

("Cuz Those Iron Sites Man They Just Don't Lie)
G|------------------------------------------------------------------|
D|----------------------------------3-3-3-3---------5-5-5-5---------|
A|-0-0-0-0-0-0-0-0--0-0-0-0-0-0-0-0---------3-3-3-3---------5-5-5-5-|
E|------------------------------------------------------------------|

("7-6-2 It'll Reach Right Out And Touch You")
G|------------------------------------------------------------------|
D|----------------------------------3-3-3-3---------5-5-5-5---------|
A|-0-0-0-0-0-0-0-0--0-0-0-0-0-0-0-0---------3-3-3-3---------5-5-5-5-|
E|------------------------------------------------------------------|

("It Might Go In Small, But It Comes Out Really Wide")
G|------------------------------------------------------------------|
D|----------------------------------3-3-3-3---------5-5-5-5---------|
A|-0-0-0-0-0-0-0-0--0-0-0-0-0-0-0-0---------3-3-3-3---------5-5-5-5-|
E|------------------------------------------------------------------|


Chorus:
("And You'll Never Get Out Alive, And You'll Never Get Out Alive")
G|-------------------------------------------------------------------|
D|----------------------------------0-0-0-0-0-0-0-0--3-3-3-3-3-3-3-3-|
A|-0-0-0-0-0-0-0-0--3-3-3-3-3-3-3-3----------------------------------|
E|-------------------------------------------------------------------|

("And You'll Never Get Out Alive, And You'll Never Get Out Alive")
G|-------------------------------------------------------------------|-----------------|
D|----------------------------------0-0-0-0-0-0-0-0--3-3-3-3-3-3-3-3-|-3-3-3-3-3-3-3-3-|
A|-0-0-0-0-0-0-0-0--3-3-3-3-3-3-3-3----------------------------------|-----------------|
E|-------------------------------------------------------------------|-----------------|


Solo:
G|-----------------------------------------|
D|-----------0-0--1-1------------0-0--1-1--|
A|-0-0--3-3-------------0-0--3-3-----------|
E|-----------------------------------------|

G|-------------------------------------------------------------------|
D|---------3-3-3-3----------2-2-2-2----------------------------------|
A|-0-0-0-0---------3-3-3-3----------1-1-1-1-1-1-1-1--0-0-0-0-0-0-0-0-|
E|-------------------------------------------------------------------|

G|-------------------------------------------------------------------|
D|---------3-3-3-3----------2-2-2-2----------------------------------|
A|-0-0-0-0---------3-3-3-3----------1-1-1-1-1-1-1-1--0-0-0-0-0-0-0-0-|
E|-------------------------------------------------------------------|

G|-------------------------------------------------------------------|
D|---------3-3-3-3----------2-2-2-2----------------------------------|
A|-0-0-0-0---------3-3-3-3----------1-1-1-1-1-1-1-1--0-0-0-0-0-0-0-0-|
E|-------------------------------------------------------------------|

G|-------------------------------------------------------------------|
D|---------3-3-3-3----------2-2-2-2----------------------------------|
A|-0-0-0-0---------3-3-3-3----------1-1-1-1-1-1-1-1--0-0-0-0-0-0-0-0-|
E|-------------------------------------------------------------------|


Chorus:
("And You'll Never Get Out Alive, And You'll Never Get Out Alive")
G|-------------------------------------------------------------------|
D|----------------------------------0-0-0-0-0-0-0-0--3-3-3-3-3-3-3-3-|
A|-0-0-0-0-0-0-0-0--3-3-3-3-3-3-3-3----------------------------------|
E|-------------------------------------------------------------------|

("And You'll Never Get Out Alive, And You'll Never Get Out Alive")
G|-------------------------------------------------------------------|
D|----------------------------------0-0-0-0-0-0-0-0--3-3-3-3-3-3-3-3-|
A|-0-0-0-0-0-0-0-0--3-3-3-3-3-3-3-3----------------------------------|
E|-------------------------------------------------------------------|

("Out Alive, Out Alive, Out Alive, Yeah")
G|---------------------------------------------------|
D|-3-3-3-3-3-3-3-3--3-3-3-3-3-3-3-3--3-3-3-3-3-3-3-3-|
A|---------------------------------------------------|
E|---------------------------------------------------|


Outro:
G|-----------------------------------------|-----------------------------------------|
D|-----------0-0--1-1------------0-0--1-1--|-----------0-0--1-1----------------------|
A|-0-0--3-3-------------0-0--3-3-----------|-0-0--3-3-------------0--------0---------|
E|-----------------------------------------|-----------------------------------------|

↓ Add and view comments below ↓

What do you think about this song and these tabs?

Add your comments, questions, rant or a thumbs up below.

Almost there ...

Sign in to get your own page with links to favourite songs and more. You are just one click away...

Login with Facebook Login with Google