Log in

One click and you are in

Login with Facebook Login with Google

Why sign up and log in

Guitar Tabs Explorer
Bush tabs for Personal holloway

Guitar tabs

Intro/chorus: (0:11, 1:06, 1:52, 2:32)
------------------------------------------------------------------------------|
------------------------------------------------------------------------------|
-----4-4----------------------------------------------------------------------|
-4-x-4-4--7-7-x-x--9----------------------------------------------------------|
-4-x-2-2--7-7-x-x--9----------------------------------------------------------|
-2-x------5-5-x-x--7----------------------------------------------------------|
Verse: lot of distortion, dead notes, and harmonics" (0:45, 1:20)
------------------------------------------------------------------------------|
------------------------------------------------------------------------------|
------------------------------------------------------------------------------|
--9-x--9-9-9----7-x-7-7-7------4-x-4-4-4--x--4-x-4-4-4------------------------|
--9-x--9-9-9----7-x-7-7-7------4-x-4-4-4--x--4-x-4-4-4------------------------|
--7-x--7-7-7----5-x-5-5-5------2-x-2-2-2--x--2-x-2-2-2------------------------|


Pre-Chorus: (1:04, 1:50)
------------------------------------------------------------------------------|
------------------------------------------------------------------------------|
-----------9-9-9-9-9/11-11----------------------------------------------------|
--4---7----9-9-9-9-9/11-11----------------------------------------------------|
--4---7----7-7-7-7-7/9--9-----------------------------------------------------|
--2---5-----------------------------------------------------------------------|

Lead Riff:(played many times throughout verse) (0:53, 1:28, 1:39)
-------------------------------------------------------------------------------|
-------------------------------------------------------------------------------|
--3h4p3-/9v------98v---8p6v----------------------------------------------------|
-------------------------------------------------------------------------------|
-------------------------------------------------------------------------------|
-------------------------------------------------------------------------------|


Bridge: (2:14)                    (2:22)"Move a little way foward..."
------------------|-----|-----------------------------------------------------|
------------------|-----|-----------------------------------------------------|
-9--5--7----7/5---|-----|----------------5------5-----5-----5-----------------|
-9--5--7----7/5---|-x3--|----------------5------5-----5-----5-----------------|
-7--3--5----5/3---|-----|----------------3------3-----3-----3-----------------|
------------------|-----|-----------------------------------------------------|

ⓘ Guitar tab for 'Personal Holloway' by Bush, an alternative rock band formed in 1991 from London, England,

Almost there ...

Sign in to get your own page with links to favourite songs and more. You are just one click away...

Login with Facebook Login with Google