Log in

One click and you are in

Login with Facebook Login with Google

Why sign up and log in

Guitar Tabs Explorer
Bo Burnham bass tabs for Stuck in a room

Bass tabs

Tuning: Standard (E A D G)

Trying To Be Funny Whilst Stuck In A Room:

G|-------------------------------------------|
D|-------------------------------------------|
A|--5--2-------------------------------------|
E|--------5--3-------------------------------|

Repeat X 4

Try Making Faces . . .:

G|--------------------------------------------|
D|--------------------------------------------|
A|---2----------------------------------------|
E|------2--3---5------------------------------|

Repeat X 2


I Was A Kid . . .:

G|-----------------------------------------|
D|-----------------------------------------|
A|--5--2-----------------------------------|
E|--------5--3--5--------------------------|

Repeat X 3

G|-----------------------------------------|
D|-----------------------------------------|
A|--5--2-----------------------------------|
E|--------5---3----------------------------|

Try Making Faces . . .:

G|-----------------------------------------|
D|-----------------------------------------|
A|--2--------------------------------------|
E|----2--3--5------------------------------|

G|-----------------------------------------|
D|-----------------------------------------|
A|-----------------------------------------|
E|-----------------------------------------|


Well Well . . .:

G|--------------------------------------------|
D|--------2--2-2------------------------------|
A|--5--5-----------------5----2---------------|
E|----------------5--5------------------------|

G|---------------------------------------------|
D|--------2--2---------------------------------|
A|--5--5-------------------5--2----------------|
E|--------------5-5--5-----------5---3---------|


Notes: I Did This By Ear So If Anyone Has
Suggestions Please Make An Edit!

Almost there ...

Sign in to get your own page with links to favourite songs and more. You are just one click away...

Login with Facebook Login with Google