Log in

One click and you are in

Login with Facebook Login with Google

Why sign up and log in

Guitar Tabs Explorer
Bullet For My Valentine bass tabs for Scream aim fire

Scream Aim Fire bass tab by Bullet For My Valentine

Bullet For My Valentine bass tabs for Scream aim fire

Bass tabs

Intro:
F|------------------------------------------------------------|x2|-------|
C|------------------------------------------------------------|x2|-------|
G|------------------------------------3333333333333333------5-|x2|-------|
C|-22222222222222222222222222222222---------------------5-----|x2|--2----|

Verse:
F|------------------------------------------------------------|x2--|
C|------------------------------------------------------------|x2--|
G|-----------------------------------------------------5---2--|x2--|
C|-22222222222222222222222222222222---5555555555555555--------|x2--|


Pre-Chorus:
F|-------------|x2|---------------------------------------------------------------|
C|-------------|x2|---------------------------------------------------------------|
G|-----------5-|x2|----7777777777777777777777---5----7777777777777777777777---5---|
C|-2--2-2--5---|x2|---------------------------5-----------------------------5-----|


Chorus:
F|-------------------------------------------------------------|x2|-------|
C|-------------------------------------------------------------|x2|-------|
G|------------------------------------3333333333333333------5--|x2|-------|
C|-22222222222222222222222222222222---------------------5------|x2|--2~---|


Verse:
F|------------------------------------------------------------|x2--|
C|------------------------------------------------------------|x2--|
G|-----------------------------------------------------5---2--|x2--|
C|-22222222222222222222222222222222---5555555555555555--------|x2--|

Pre-Chorus:
F|-------------|x2|---------------------------------------------------------------|
C|-------------|x2|---------------------------------------------------------------|
G|-----------5-|x2|----7777777777777777777777---5----7777777777777777777777---5---|
C|-2--2-2--5---|x2|---------------------------5-----------------------------5-----|


Chorus:
F|-------------------------------------------------------------|x2|-------|
C|-------------------------------------------------------------|x2|-------|
G|------------------------------------3333333333333333------5--|x2|-------|
C|-22222222222222222222222222222222---------------------5------|x2|--2~---|


Bridge:
F|-----------------------------------------------------------------|
C|-----------------------------------------------------------------|
G|-----------------------------------------------------------------|
C|-222-22-22-22-22-22-22-22-22---22-22-22-22-22-22-22-22-22--5--5--|

F|------------------------------------------------------------------------|
C|------------------------------------------------------------------------|
G|------------------------------------------------------------------3--2--|
C|-22-22-22-22-22-22-22-22-22-----22-22-22-22-22-22-22-22-22--5--5--------|


Solo:
F|------------------------------------------------------------|x2--|
C|------------------------------------------------------------|x2--|
G|-----------------------------------------------------5---2--|x2--|
C|-22222222222222222222222222222222---5555555555555555--------|x2--|


Pre-Chorus:
F|-------------|x2|---------------------------------------------------------------|
C|-------------|x2|---------------------------------------------------------------|
G|-----------5-|x2|----7777777777777777777777---5----7777777777777777777777---5---|
C|-2--2-2--5---|x2|---------------------------5-----------------------------5-----|


Chorus:
F|-------------------------------------------------------------|x2|-------|
C|-------------------------------------------------------------|x2|-------|
G|------------------------------------3333333333333333------5--|x2|-------|
C|-22222222222222222222222222222222---------------------5------|x2|--2~---|


Outro:
F|-------------------------------------------------------------------|
C|-------------------------------------------------------------------|
G|-------------------------------------------------------------------|
C|-14\222-22-22-22-22-22-22-22-22--22-22-22-22-22-22-22-22-22--5--5--|

F|-------------------------------------------------------------------------------|
C|-------------------------------------------------------------------------------|
G|-----------------------------------------------------------------3--2----------|
C|-22-22-22-22-22-22-22-22-22-2--22-22-22-22-22-22-22-22-22--5--5--------2~---2--|

Enjoy :D

Almost there ...

Sign in to get your own page with links to favourite songs and more. You are just one click away...

Login with Facebook Login with Google