Log in

One click and you are in

Login with Facebook Login with Google

Why sign up and log in

Guitar Tabs Explorer
Buffalo Springfield bass tabs for Mr soul

Bass tabs

Intro: (0:00 - 0:07)

G|------------------------------------------------------------------|
D|------------------------------------------------------------------|
A|--7-7---7---5-6----7-7---7---5-6----7-7--7-----5-6----7-7--7------|
E|------7---7------------7---7---------------7-7---------------7-7--|

Verse 1: (0:07 - 0:38)

G|-------------------------------------------------------------------------------------------------|
D|-------------------------------------------------------------------------------------------------|
A|--5-6----7-7--7-----5-6----7-7--7-----5-6----7-7--7-----5-6----7-7--7-----5-6----7-7--7-----5-6--|
E|----------------7-7---------------7-7---------------7-7---------------7-7---------------7-7------|

G|---------------------------------------------------------------------------------------------------|
D|----------------------------------------------------------7-5-4-------7-5--------------------------|
A|--7-7--7-----5-6----7-7--7-----5-6----7-7--7-----5-6------------7---7-------5-6----7-7--7-----5-6--|
E|---------7-7---------------7-7---------------7-7--------5---------5-------7---------------7-7------|

G|-----------------------------------------------------------------------------------------------|
D|-------------9--------------------7h5----------------------------------------------------------|
A|--7-7--7----------5--5-5-4-2------------5----7-7--7-----5-7--5h7--5-----5-6----7-7--7-----5-6--|
E|---------7-7--------------------5-----7-------------7-7-------------7-7---------------7-7------|


Verse 2: (0:38 - 1:07)

G|------------------------------------------------------------------------------------------|
D|------------------------------------------------------------------------------------------|
A|--7-7--7-----5-6----7-7--7-----5-6----7-7--7-----5-6----7-7--7-----5-6----7-7--7-----5-6--|
E|---------7-7---------------7-7---------------7-7---------------7-7---------------7-7------|

G|---------------------------------------------------------------------------------------|
D|------------------------------------------------------------------7-5---------7--------|
A|--7-7--7-----5-6----7-7--7-----5-6----7-7--7---7---7-----5-6----------5-7-5-4-----5-6--|
E|---------7-7---------------7-7---------------7---7---7-7--------5---------------7------|

G|------------------------------------------------------------------------------------------|
D|-----------------------------------------------------7------------------------------------|
A|--7-7--7-----5-6----7-7--7-----5h7----5---5-4-2----------5-6----7-7--7-----5-6----7-7--7--|
E|---------7-7---------------7-7----------5----------5---7---------------7-7----------------|


Solo: (1:07 - 1:51)

G|-----------------------------------------------------------------------------------------------------|
D|-----------------------------------------------------------------------------------------------------|
A|------5-6----7-7--7-----5-6----7-7--7-----5-6----7-7--7-----5-6----7-7--7-----5-6----7-7--7-----5-6--|
E|--7-7---------------7-7---------------7-7---------------7-7---------------7-7---------------7-7------|

G|-------------------------------------------------------------------------------------------------|
D|----------------------------------------------------3---0-3--------3-3---0-3--------3---0-3------|
A|--7-7--7-----5-6----7-7--7---7---7---7---5h7-5h7------3-----3-3--------3-----3-3------3-----3-3--|
E|---------7-7---------------7---0---0---0-----0---------------------------------------------------|

G|-------------------------------------------------------------------------------------------|
D|--3-3---3-----3-4-5----7---7-----7-5-4-----------7----7----5---4-2-------------------------|
A|------3---3-5------------0---0-0-------5-7-5---5----0----0---0-----0-3-4----7-7--7---5-6---|
E|---------------------------------------------8-------------------------------------7-------|

G|------------------------------------------------------------------------------------------------|
D|---------------------------------------------------------------------7--------------------------|
A|--7-7--7-----5-6----7-7--7-----5-6----7-7--7-----5-7----5-5-4-2----------5-6----7-7--7-----5-6--|
E|---------7-7---------------7-7---------------7-7-------------------5---7---------------7-7------|

G|------------------|
D|------------------|
A|--7-7--7-----5-6--|
E|---------7-7------|


Verse 3: (1:51 - 2:52)

G|----------------------------------------------------------------------------------------------------|
D|----------------------------------------------------------------------------------------------------|
A|--5h7---5-6----7---7---5-6----7-7--7-----5-6----7-7--7-----5-6----7-7--7-----5-6----7-7--7-----5-6--|
E|------7----------7---7---------------7-7---------------7-7---------------7-7---------------7-7------|

G|-----------------------------------------------------------------------------------------------|
D|------------------------------------------------------------------------7--7-5-4------------5--|
A|--7-7--7-----5-6----7-7--7-----5-6----7-7--7-----5-6----7-7--7---5-6-------------7-5--7-5------|
E|---------7-7---------------7-7---------------7-7---------------7--------------------------7----|

G|-----------------------------------------------------------------------------------------------------|
D|--------------------------------------------------------7-5------------------------------------------|
A|--7-7--7-----5-6----7-7--7-----5-7----5--5-5-4-3-2------------6----7-7--7-----5-6----7-7--7-----5-6--|
E|---------7-7---------------7-7------------------------5-----7-------------7-7---------------7-7------|

G|-----------------------------------------------|
D|------------------7----------------------------|
A|--5--5-5-4-3-2----------5-6----7-7--7-----5-6--|
E|--------------------5-7---------------7-7------|

Play the D -> A -> E progression as the song fades out.


☠☠☠☠☠☠☠☠☠☠☠☠☠☠☠☠☠☠☠☠☠☠☠☠☠☠☠☠☠☠☠☠☠☠☠☠

| h  Hammer-on

☠☠☠☠☠☠☠☠☠☠☠☠☠☠☠☠☠☠☠☠☠☠☠☠☠☠☠☠☠☠☠☠☠☠☠☠

Almost there ...

Sign in to get your own page with links to favourite songs and more. You are just one click away...

Login with Facebook Login with Google