Log in

One click and you are in

Login with Facebook Login with Google

Why sign up and log in

Guitar Tabs Explorer
Буерак bass tabs for Пролетариат

Пролетариат bass tab by Буерак

Буерак bass tabs for Пролетариат

Bass tabs

Tuning: Standard (E A D G)


Intro:

G|-------------|-----------------|-------------|-----------------|
D|-------------|-----------------|-------------|-----------------|
A|-3--3-3-3--3-|-----------------|-------------|-----------------| x4
E|-------------|3--3-3-3-3-3-3-3-|-4--4-4-4--4-|0--0-0-0-0-0-0-0-|

G|-------------|-----------------|
D|-------------|-----------------|
A|-3--3-3-3--3-|-----------------| x1
E|-------------|3--3-3-3-3-3-3-3-|

G|---------|---------|---------|---------|
D|---------|---------|---------|---------|
A|-0-0-0-0-|-0-0-0-0-|-0-0-0-0-|-0-0-0-0-| x2
E|---------|---------|---------|---------|

G|---------|---------|---------|---------| \
D|---------|---------|---------|---------| \
A|-0-0-0-0-|-0-0-0-0-|-0-0-0-0-|-0-0/(4)-|  \
E|---------|---------|---------|---------|  \
                        \
G|---------|---------|---------|---------|   \
D|-3-3-3-3-|-3-3-3-3-|-3-3-3-3-|-3-3-3-3-|    \
A|---------|---------|---------|---------|    \
E|---------|---------|---------|---------|     \
                           x2
G|---------|---------|---------|---------|     /
D|---------|---------|---------|-------3-|    /
A|-5-5-5-5-|-5-5-5-5-|-5-5-5-5-|-5-5-5---|    /
E|---------|---------|---------|---------|   /
                        /
G|---------|---------|---------|---------|  /
D|---------|---------|---------|---------|  /
A|-3-3-3-3-|-3-3-3-3-|-3-3-3-3-|-2-2-3-3-| /
E|---------|---------|---------|---------| /

G|---------|---------|---------|---------|
D|---------|---------|---------|---------|
A|-0-------|---------|---------|---------| x2
E|---------|---------|---------|---------|


Verse 1:

G|---------|---------|---------|---------| \
D|---------|---------|---------|---------| \
A|-0-0-0-0-|-0-0-0-0-|-0-0-0-0-|-0-0-0-0-|  \
E|---------|---------|---------|---------|  \
                        x4
G|---------|---------|---------|---------|  /
D|---------|---------|---------|---------|  /
A|-3-3-3-3-|-3-3-3-3-|-3-3-3-3-|-3-3-2-2-| /
E|---------|---------|---------|---------| /


Chorus:

G|---------|---------|---------|---------|
D|-3-3-3-3-|-3-3-3-3-|-3-3-3-3-|-3-3-3-3-|
A|---------|---------|---------|---------|
E|---------|---------|---------|---------|

G|---------|---------|---------|---------|
D|-2-2-2-2-|-2-2-2-2-|-2-2-2-2-|-2-2-2-2-|
A|---------|---------|---------|---------|
E|---------|---------|---------|---------|

G|---------|---------|---------|---------| \
D|---------|---------|---------|---------| \
A|-0-0-0-0-|-0-0-0-0-|-0-0-0-0-|-0-0-0-0-|  \
E|---------|---------|---------|---------|  \
                        x4
G|---------|---------|---------|---------|  /
D|---------|---------|---------|---------|  /
A|-3-3-3-3-|-3-3-3-3-|-3-3-3-3-|-3-3-2-2-| /
E|---------|---------|---------|---------| /

G|---------|---------|---------|---------|
D|-3-3-3-3-|-3-3-3-3-|-3-3-3-3-|-3-3-3-3-|
A|---------|---------|---------|---------|
E|---------|---------|---------|---------|

G|---------|---------|---------|---------|
D|-2-2-2-2-|-2-2-2-2-|-2-2-2-2-|-2-2-2-2-|
A|---------|---------|---------|---------|
E|---------|---------|---------|---------|


Bridge:

G|---------|---------|---------|---------|---------|---------|
D|---------|---------|---------|---------|---------|---------|
A|-0-------|-----2---|-3-------|-----5---|-7-------|---------|
E|---------|---------|---------|---------|---------|---------|

G|---------|---------|---------|---------|
D|---------|---------|---------|---------|
A|-5-5-5-5-|-5-5-5-5-|-5-5-5-5-|-5-5-5-5-|
E|---------|---------|---------|---------|


Verse 2:

G|---------|---------|---------|---------|
D|---------|---------|---------|---------|
A|-0-0-0-0-|-0-0-0-0-|-0-0-0-0-|-2-2-2-3-|
E|---------|---------|---------|---------|

G|---------|---------|---------|---------|
D|---------|---------|---------|---------|
A|---3-3-3-|-3-3-3-3-|-3-3-3-3-|-3-3-3-3-|
E|---------|---------|---------|---------|

G|---------|---------|---------|---------|
D|---------|---------|---------|---------|
A|-7-7-7-7-|-7-7-7-7-|-7-7-7-7-|-7-7-7-7-|
E|---------|---------|---------|---------|

G|---------|---------|---------|---------|
D|---------|---------|---------|---------|
A|-5-5-5-5-|-5-5-5-5-|-5-5-5-5-|-5-5-5-5-|
E|---------|---------|---------|---------|


Outro:

G|---------|---------|---------|---------|
D|---------|---------|---------|---------|
A|-0-0-0-0-|-0-0-0-0-|-0-0-0-0-|-2-2-2-3-|
E|---------|---------|---------|---------|

G|---------|---------|---------|---------|
D|---------|---------|---------|---------|
A|---3-3-3-|-3-3-3-3-|-3-3-3-3-|-3-3-3-3-|
E|---------|---------|---------|---------|

G|---------|---------|---------|---------|
D|---------|---------|---------|---------|
A|-7-7-7-7-|-7-7-7-7-|-7-7-7-7-|-7-7-7-7-|
E|---------|---------|---------|---------|

G|---------|---------|---------|---------|
D|---------|---------|---------|---------|
A|-5-5-5-5-|-5-5-5-5-|-5-5-5-5-|-5-5-5-5-|
E|---------|---------|---------|---------|


************************************


| () Ghost note
| / Slide up


************************************

Almost there ...

Sign in to get your own page with links to favourite songs and more. You are just one click away...

Login with Facebook Login with Google