Log in

One click and you are in

Login with Facebook Login with Google

Why sign up and log in

Guitar Tabs Explorer
Jeff Buckley bass tabs for Lover you shouldve come over

Lover You Should've Come Over bass tab by Jeff Buckley

Jeff Buckley bass tabs for Lover you shouldve come over

Bass tabs

Intro:

G|----------------|-----------------|--------------|---------------|
D|----------------|-----------------|--------------|---------------|
A|-------r--------|------e----------|-----s--------|------t--------|
E|----------------|-----------------|--------------|---------------|

starts at 0:42
G|----------------|-----------------|--------------|---------------|
D|--------12------|--------12-------|--------------|---------------|
A|----------------|-----------------|--------------|--------7------|
E|--10------------|--10--------8----|--0----0------|--0------------|



Verse 1:

G|-----------------|-----------------|--------------|--------------|
D|---------12------|--------12-------|--------------|--------------|
A|-----------------|-----------------|--------------|-------7------|
E|---10------------|--10--------8----|--0----0------|--0-----------|

G|----------------|-----------------|--------------|--------------|
D|--------12------|--------12-------|--------------|--------------|
A|----------------|-----------------|--------------|--------------|
E|--10------------|--10--------8----|--0----0------|--0-----------|

G|--------------|--------------|---------------|-------------|
D|--------------|--------------|---------------|-------------|
A|--------------|--9----7------|---------------|-------------|
E|--9----9------|--------------|--7----5-------|--3----------|

G|----------------|-----------------|----------------|---------------|
D|----------------|-----------------|----------------|---------------|
A|----------------|-----------------|----------------|--10-----------|
E|--10------------|--10----10--8----|--0----0--------|---------------|

G|-----------------|-----------------|--------------|--------------|
D|---------12------|--------12-------|--------------|--------------|
A|-----------------|-----------------|--------------|-------7------|
E|---10------------|--10--------8----|--0----0------|--0-----------|

G|----------------|-----------------|--------------|--------------|
D|--------12------|--------12-------|--------------|--------------|
A|----------------|-----------------|--------------|--------------|
E|--10------------|--10--------8----|--0----0------|--0-----------|

G|-----------------|---------------|--------------|--------------------|
D|-------11--------|---------------|--------------|--------------------|
A|-----------10----|--9----7-------|--------------|--------------------|
E|--9--------------|---------------|--7----5------|--3----2-2-2-2-2----|


Bridge:

G|---------------|------------------|-------------|------------------|
D|---------------|------------------|-------------|------------------|
A|----------5----|--7----7----------|-------------|----------7--5----|
E|--7----7-------|----------3--5----|--7----------|--0----0----------|

G|------------------|--------------|---------------|
D|------------------|--------------|---------------|
A|----------5--6----|--------------|-------10------|
E|--7----7----------|--0----0------|--8------------|

G|----------------------|-----------|------------------------|
D|----------------------|-----------|------------------------|
A|----------------10----|-----------|----------7--5--5--5----|
E|--8----x--8/12--------|--0--------|--(0)--0----------------|


Chorus:

G|------------------|---------------------|----------------------|----------------------|
D|-------4----------|---------------------|----------------------|-----------------7----|
A|------------------|-------------5--7----|--9-------------------|-----------10---------|
E|--2-------x--2----|--3----5--6----------|-----5--5--2--2--5----|--7----10-------------|

G|----------------------|----------------|----------------|-------------|
D|-----------------9----|----------------|----------------|-------------|
A|-----------12---------|----------------|----------------|-------------|
E|--9----12-------------|--12----10------|--9--7--5--2----|--0----------|

G|-----------|----------------|----------------|-----------|-----------|
D|-----------|----------------|--7-------------|-----------|-----------|
A|-----------|--0----0--------|----------------|-----------|-----------|
E|--0--------|----------------|-------8--------|--0--------|--0--------|


Verse 2:

G|----------------|---------------|------------|------------|
D|-------7--------|---------------|------------|------------|
A|----------------|-------5--3----|------------|------------|
E|--5-------------|--5------------|--0----0----|--3----7----|

G|---------------|----------------|------------|------------|
D|-------7-------|----------------|------------|------------|
A|---------------|-------5--3-----|------------|------------|
E|--5------------|--5-------------|--0----0----|--0----0----|


G|----------------|---------------|------------|------------|
D|-------7--------|---------------|------------|------------|
A|----------------|-------5--3----|------------|------------|
E|--5-------------|--5------------|--0----0----|--3----7----|

G|---------------|----------------|------------|----------------|
D|-------7-------|----------------|------------|----------------|
A|---------------|-------5--3-----|------------|----------------|
E|--5------------|--5-------------|--0----0----|--0----0-0-0-0--|

G|---------------|--------------|--------------|---------------|----------------------|
D|---------------|--------------|--------------|---------------|----------------------|
A|-------10------|--9----7------|--------------|---------------|--10-10-12--13-12-10--|
E|--9------------|--------------|--7----5------|--3--3-3--3----|----------------------|


Chorus:

G|--------------------|---------------------|--------------------|--------------------|
D|--------------------|---------------------|--------------------|----------5---------|
A|--------------------|-------------5--7----|--------------------|--2----5-------5----|
E|--2----2--2----2----|--3----5--6----------|--2----2--5----2----|--------------------|
                                           | x2
G|-----------------|----------------|--------------|----------------|-----------------|
D|----------7-7-9--|----------------|--------------|----------------|-----------------|
A|-------7---------|----------------|--------------|----------------|-----------------|
E|--9--------------|--12----10------|--9-7--5-2----|--0-0-0--0-0-0--|--0-0-0--0-0-0---|


G|-----------------|----------------|--------------|----------------|--------------|
D|----------7-7-9--|----------------|--------------|----------------|--------------|
A|-------7---------|----------------|--------------|--7-------------|--7----7------|
E|--9--------------|--12----10------|--9-7--5-2----|-------0--------|--------------|

G|----------------|---------------|--------------------------------------------|
D|----------------|--12-----------|--------------------------------------------|
A|----------------|---------------|--------------------------------------------|
E|--10----10------|--------8------|--0-----------------------------------------|


☠☠☠☠☠☠☠☠☠☠☠☠☠☠☠☠☠☠☠☠☠☠☠☠☠☠☠☠☠☠☠☠☠☠☠☠

| x  Dead note
| (n) Ghost note
| /  Slide up


☠☠☠☠☠☠☠☠☠☠☠☠☠☠☠☠☠☠☠☠☠☠☠☠☠☠☠☠☠☠☠☠☠☠☠☠

Almost there ...

Sign in to get your own page with links to favourite songs and more. You are just one click away...

Login with Facebook Login with Google