Log in

One click and you are in

Login with Facebook Login with Google

Why sign up and log in

Guitar Tabs Explorer
Buckethead guitar tabs for Wall to wall cobwebs

Solo tabs

Tuning: Standard (E A D G B E)

"WALL TO WALL COBWEBS"
by Buckethead
 Solo:

  10:47                                                                 (hold bend)
e|---------------------------------------------------------------------------------------|
B|---------------------------------------------------------15--15-17fb----17-17-17-17fb--|
G|------------------------------------------16---14-16~------16--------------------------|
D|-14fb----14-14-14-14--14rbp12----12h14/16---16-----------------------------------------|
A|-----------------------------h14-------------------------------------------------------|
E|---------------------------------------------------------------------------------------|
                                                 PM

e|--------------------------------------------------------------------------------------|
B|-17-15-17-17fb-15---------15b---------------------------------------------------------|
G|------------------16-16--------16p14--------------------------------------------------|
D|------------------------------------g16\14-12--14/16~-----14-\12-11--12-12~--12-12-\--|
A|--------------------------------------------------------------------------------------|
E|--------------------------------------------------------------------------------------|

e|---------7-9hbr---10-9--------------------------------------------------------------14------|
B|-------7---------------7---10-----------------------------------------14-14hb-14-12----12---|
G|-----7------------------------7---6-7-9-9/11--12-12/14--12-11-12----------------------------|
D|-7/9-------------------------------------------------------------12-------------------------|
A|--------------------------------------------------------------------------------------------|
E|--------------------------------------------------------------------------------------------|

e|--------------------------------------------------------------------------14-15-17-15-14------14---|
B|-----------------------------15-17-17fb------19hbr---19h20p19p17-15-17-17----------------17-15--15-|
G|-14fb-14-----------14/16--16------------16---------------------------------------------------------| ends
D|---------14-12~------------------------------------------------------------------------------------| 11:11
A|---------------------------------------------------------------------------------------------------|
E|---------------------------------------------------------------------------------------------------|

  011:36
e|------------------------------------------------------------|
B|------------------------------------------------------------|
G|----------------------7\6------------9-7-6--/7-7-\6---------|
D|--------7-7h9~------7-----7~--\----7----------------9-9--7--|
A|-5-7-/9----------9--------------9---------------------------|
E|------------------------------------------------------------|
                                    PM

e|--------------------------------------------------------|
B|-----------------------------------------------7---7----|
G|-------7-6-------------9/11--9-7-6-6---7-7-7-----7------|
D|-----7-----9---7-----7----------------------------------|
A|-9---------------9--------------------------------------|
E|--------------------------------------------------------|
     PM-----|

e|-----------------------------------------------|----------------------------------------|
B|------15-15-15~---14-14~-----------------------|----------------------------------------|
G|---------------------------14-14~--------------|-14-14/16---14-12---11-11---11----------|
D|-/16--------------------------------14-14\-12--|-------------------------------12-12-/--|
A|-----------------------------------------------|----------------------------------------|
E|-----------------------------------------------|----------------------------------------|

e|--------------------------------------|-----------------------------------------|
B|-15---14-14---------------------------|-12--------------------------------------|
G|--------------14-14-------------------|------14-12-\11---12---------------------| ends
D|----------------------14-14-14-14\12--|---------------------12-\11----/14--14~--| 12:00
A|--------------------------------------|-----------------------------------------|
E|--------------------------------------|-----------------------------------------|

  12:17
e|------------------------------------------17-----------------17fb--17--17fb-17-15-14-15-17-14------|
B|----------14-15------15-17---15-17-17fb(hold)-17fbrp15-15-15------------------------------------17-|
G|-14-16~---------14---------------------------------------------------------------------------------|
D|---------------------------------------------------------------------------------------------------|
A|---------------------------------------------------------------------------------------------------|
E|---------------------------------------------------------------------------------------------------|

e|-------------------------------------------------|---------------------------------|
B|-15---14-----------------------------------------|-------17-15\14-14---------------|
G|---------16~16~--14-12-11---12-14----------------|----16---------------------------|
D|----------------------------------12--\11--------|-16----------------14-\12-12-12--|
A|------------------------------------------14-14--|---------------------------------|
E|-------------------------------------------------|---------------------------------|
                                                                    PM

e|-------------------------------------------|-------------------------------------------|
B|--------22p20-19-19---17-15----------------|-------------------------------------------|
G|-----19---------------------18--\16-14-----|-14-11---12-11-----------------------------|
D|-/19---------------------------------------|---------------12--\11-9-9---7---------7---|
A|-------------------------------------------|-------------------------------9\7-5-----5-|
E|-------------------------------------------|-------------------------------------------|

  12:36
e|--------------------------------------------------------------------------|
B|--------------------------------------------------------------12-10fb~~---| cont.
G|----------------------7---7~---------------------7~---9/11-11-------------| below
D|-----------------------------9p7---7-9-9-9-9~--9--------------------------|
A|---------5--7/9-\--/9---9-------h9----------------------------------------|
E|-7~--5-7------------------------------------------------------------------|
        PM

e|--------------------------7-9hbr---7---7h10-7h9h10p9p7---7h10fb--10--9--7-----7----------|
B|-10fbr-----------------7------------h10---------------h10------------------10---10fb~~---|
G|------11-9fbr-7-9--7h9-------------------------------------------------------------------|
D|-----------------------------------------------------------------------------------------|
A|-----------------------------------------------------------------------------------------|
E|-----------------------------------------------------------------------------------------|

e|--------------------------------------------------------------------------------|
B|-12fbr---14hbr--15fbr---17fb--19hb---17fbr-17fb~--17-17-17~--17-17~--17-17-17\--|
G|---------------------------------------------(hold-bend-throughout-these-notes)-|
D|--------------------------------------------------------------------------------|
A|--------------------------------------------------------------------------------|
E|--------------------------------------------------------------------------------|

e|--------------------------------------------------------------------------|
B|------14--14hb--15fb--17fb--19hb-17fb-17-17-17-17~--17-17~--17-17~--17\---|
G|-/16--------------------------------(hold--bend--throughout-these-notes)--|x2
D|--------------------------------------------------------------------------|
A|--------------------------------------------------------------------------|
E|--------------------------------------------------------------------------|

e|--------------------------------------------------------------------------------|
B|------14--14hb--15fb--17fb--19hb-17fb--17-17-17-17-17-17~--17-17~--17rbp15--15--|
G|-/16--------------------------------(hold--bend-throughout-notes)---------16----|
D|--------------------------------------------------------------------------------|
A|--------------------------------------------------------------------------------|
E|--------------------------------------------------------------------------------|

  13:12
e|-17fb-17--17~---17~--17-----------------|
B|----(hold---the---bend)--17fbrp15----15-|
G|----------------------------------16----|x3
D|----------------------------------------|
A|----------------------------------------|
E|----------------------------------------|

e|-17fb-17-17-17~17~17-17---17~17\--|
B|----(hold---the---bend)-----------|
G|----------------------------------|
D|----------------------------------|
A|----------------------------------|
E|----------------------------------|

e|---10-9----------------------------------------------------------------------|
B|-7--------10-----------------------------------------------------------12-12-|
G|-------------7--pb9--9rb-9-7-9fbrp7--9-7~------------7-9-7~-----7h9/11----11-|
D|-----------------------------------9-------9p7---7-9---------9---------------|
A|----------------------------------------------h9-----------------------------|
E|-----------------------------------------------------------------------------|
                                                       P M

e|-------------------------------------------------------------------------------|
B|-------------------------------------------------------------------------------|
G|-14fb---14b-14b-14brp12--------------------------------------------------7-----|
D|-----------------------14-12~---11---------------------------------------7-----|
A|-----------------------------------12~--------12--14p12---------------------9--|
E|----------------------------------------12/14-----------12\10---7--7-5-7-------|

  14:35
e|--------------||-------------------------------------|--------------------------------------|
B|--------14h15-||--------------17--15-14-14---15------|-------------------15---14-14---------|
G|-14--16-------||-16---16~--16------------------14h16-|-16---16~--16~--16-----------14---12--|
D|--------------||-------------------------------------|--------------------------------------|
A|--------------||-------------------------------------|--------------------------------------|
E|--------------||-------------------------------------|--------------------------------------|

e|----------------------------14-14-----------------------------------------------17-|
B|-14h15--14----------17-17-----------15-14-14-14---15-14-15-15-17-17-15-15-14-14----|
G|-----------16-16~------------------------------------------------------------------|
D|-----------------------------------------------------------------------------------|
A|-----------------------------------------------------------------------------------|
E|-----------------------------------------------------------------------------------|

e|-17fb--17-p15-14---------------------------|-17fbr----17-15-14------------------------------|
B|------------------15-15---14-14-14---15-15-|--------------------15-15---14-14-14~--15-14-14-|
G|-------------------------------------------|------------------------------------------------|
D|-------------------------------------------|------------------------------------------------|
A|-------------------------------------------|------------------------------------------------|
E|-------------------------------------------|------------------------------------------------|

e|-17fb--17-p15-14---------------------------17-|-17fb--17-15-14------------------------------|
B|------------------15-15---14-14-14---15-15----|-----------------15-15---14-14-14~-----------|
G|----------------------------------------------|------------------------------------16-16~---|
D|----------------------------------------------|---------------------------------------------|
A|----------------------------------------------|---------------------------------------------|
E|----------------------------------------------|---------------------------------------------|

e|-17fb--17-15-14---------------------------------|-17fb--17-15-14------------------------------|
B|-----------------15-15---14-14-14---14-14h15-15-|-----------------15-15---14-14-14~-----------|
G|------------------------------------------------|------------------------------------16-16~---|
D|------------------------------------------------|---------------------------------------------|
A|------------------------------------------------|---------------------------------------------|
E|------------------------------------------------|---------------------------------------------|

e|-17fb--17-p15-14---------------------------|-17fbr----17-15-14------------------------------|
B|------------------15-15---14-14-14---15-15-|--------------------15-15---14-14-14~-----------|
G|-------------------------------------------|---------------------------------------16-16~---|x2
D|-------------------------------------------|------------------------------------------------|
A|-------------------------------------------|------------------------------------------------|
E|-------------------------------------------|------------------------------------------------|


************************************

| g   Grace note
| h   Hammer-on
| p   Pull-off
| r   Release
| hb  Half-Bend
| fb  Full-Bend
| br  Bend release
| pbr Pre-bend release
| /   Slide up
| \   Slide down
| ~   Vibrato
| PM  Palm mute

************************************

Almost there ...

Sign in to get your own page with links to favourite songs and more. You are just one click away...

Login with Facebook Login with Google