Log in

One click and you are in

Login with Facebook Login with Google

Why sign up and log in

Guitar Tabs Explorer
Buckethead guitar tabs for Pluriverse

Guitar tabs

Tuning: Standard (E A D G B E)

Buckethead

Pluriverse


Intro:

e|----------------------|------------------10----|----------------------|----------------------|
B|-------------8--------|--7-----7--8--10--------|----------------------|--7-----7--5-----5----|
G|----------------------|-----7------------------|-------------7--------|-----7--------5-------|
D|----------5-----------|------------------------|----------5-----------|----------------------|
A|-----7----------------|------------------------|-----7----------------|----------------------|
E|--0-------------------|------------------------|--0-------------------|----------------------|





e|----------------------|--------7--10----8----|--7------8p7--------------|----------------------|
B|----------------------|-----8----------------|--------------10------\8--|--8p7----8--10--------|
G|-------------7--------|--9-------------------|--------------------------|----------------------|
D|----------5-----------|----------------------|--------------------------|----------------------|
A|-----7----------------|----------------------|--------------------------|----------------------|
E|--0-------------------|----------------------|--------------------------|----------------------|



Part 1:

e|----------------------|-------------------------|--------------------------|------------------------|
B|----------------------|-------------------------|--------------------------|------------------------|
G|----------------------|--7------5h7p5-4---------|--------------------------|--7/9------7------------|
D|-------------------5--|----------------------5--|-------------------5------|--------------10--------|
A|--3------5--7---------|-------------------------|--3------5--7-------------|------------------------|
E|----------------------|-------------------------|--------------------------|------------------------|




e|----------------------|-------------------------|-------------------|------------------------|
B|----------------------|-------------------------|-------------------|------------------------|
G|----------------------|--7------5h7p5-4---------|-------------------|------------------------|
D|-------------------5--|----------------------5--|--4----------------|------------------------|
A|--3------5--7---------|-------------------------|-------------------|----5-------------------|
E|----------------------|-------------------------|-------------------|------------------------|



Part2:
    PM                                              PM
e|------------------------|----------------------|------------------------|----------------------|
B|------------------------|----------------------|------------------------|----------------------|
G|------------------------|---------12----9------|------------------------|---------12----9------|
D|------------------------|---------12----9------|------------------------|---------12----9------|
A|-------------7----------|---------10----7------|-------------7----------|---------10----7------|
E|--0--7--8---------8--7--|--0-------------------|--0--7--8---------8--7--|--0-------------------|




    PM
e|------------------------|------------------------|--------------------12--|--14--15--14---------------|
B|------------------------|------------------------|--13p12------15---------|--------------15-----------|
G|------------------------|---------12----9--------|---------12-------------|--------------------14/16--|
D|------------------------|---------12----9--------|------------------------|---------------------------|
A|-------------7----------|---------10----7----12--|------------------------|---------------------------|
E|--0--7--8---------8--7--|--0---------------------|------------------------|---------------------------|





e|-------------------------|-------------------------|--------------------------|
B|-------------------------|-------------------------|--------------------------|
G|-------------------------|-------------------------|--14/16-------------------|
D|--14--------16h17--------|-------------------------|---------14--------16h17--|
A|-------------------17----|----15h17p15--14---------|--------------------------|
E|-------------------------|----------------------0--|--------------------------|





e|-------------------------------|---------------------------------|------------14b15------14p12h14--|
B|-------------------------------|---------------------------------|---------------------------------|
G|-------------------------------|--16h17--16--------16h17--16p14--|--14-----------------------------|
D|-------------------------------|---------------------------------|---------------------------------|
A|--17----17h19-17p15-14---------|---------------------------------|---------------------------------|
E|----------------------------0--|---------------------------------|---------------------------------|





e|-14-15p14p12\11-12h15p12-14h15-15p14-12\11 11\7-|-7-7h8p7--------8p7-8p7---------7b8br7--|
B|------------------------------------------------|--------10p8h10---------10p8h10---------|
G|------------------------------------------------|----------------------------------------|
D|------------------------------------------------|----------------------------------------|
A|------------------------------------------------|----------------------------------------|
E|------------------------------------------------|----------------------------------------|



Part3:
    PM PM PM PM        PM PM    PM PM
e|---------------------------|------------------------|
B|---------------------------|--3-----3h5------5------|
G|--------7-----7h9----------|------------------------| x4
D|-----5-----5------------4--|-----4------------------|
A|--7------------------5-----|------------------------|
E|---------------------------|------------------------|



Part4:
    PM____________________________________________________________________________________________________
e|--------------------------|--------------------------|--------------------------|-------------------------|
B|--------------------------|--------------------------|--------------------------|-------------------------|
G|--------------------------|--------------------------|--------------------------|-------------------------|
D|--4--------2--4--------2--|--4--------2--5--2--------|--4--------2--4--------2--|--4-------2--5--4--------|
A|--------2-----------3-----|--------3-----------3-----|--------2-----------3-----|-------3-----------5-----|
E|-----0-----------0--------|-----0-----------------0--|-----0-----------0--------|----0-----------------0--|




    PM____________________________________________________________________________________________________
e|--------------------------|--------------------------|--------------------------|-------------------------|
B|--------------------------|--------------------------|--------------------------|-------------------------|
G|--------------------------|--------------------------|--------------------------|-------------------------|
D|--4--------2--4--------2--|--4--------2--5--2--------|--4--------2--4--------2--|--4-------2--5--4--------|
A|--------2-----------3-----|--------3-----------3-----|--------2-----------3-----|-------3-----------5-----|
E|-----0-----------0--------|-----0-----------------0--|-----0-----------0--------|----0-----------------0--|



Part5:
    PM PM                                                         PM
e|-------------------------|----------------------------|----------------------|----------------------|
B|-------------------------|----------------------------|----------------------|----------------------|
G|--2--2--2--4--4/5--------|----------4--7--5--4--------|------------9----4----|------5---------------|
D|--2--2-------------------|--4h5--5--------------5--4--|--2---------9----4----|------5---------------|
A|--0----------------------|----------------------------|--2---------7----2----|------3--------12\----|
E|-------------------------|----------------------------|--0------0------------|---------------12\----|




    PM PM                                                         PM
e|--------------------------|----------------------5/7--|--------------------|--------------------|
B|--------------------------|---------------------------|--------------------|--------------------|
G|--2--2--2--4--5-----------|----7--5--4----------------|--9---------4----5--|--------//--12--12--|
D|--2--2---------------3/5--|-------------5--4----------|--9---------4----5--|--------//--12--12--|
A|--0-----------------------|-------------------5-------|--7---------2----3--|--------------------|
E|--------------------------|---------------------------|---------0----------|--------------------|




             PM PM  PM PM     PM PM
e|-------------------------|--------------------------|-------------------------|-----------------------|
B|-------------------------|--------------8--7--------|--7b8br7-----------------|-----------------------|
G|--9----------------------|--------9--7--------9--7--|--------------7--9-------|-----------------------|
D|--9---------------7------|--9--7--------------------|----------------------9--|-------------12--------|
A|-----------7--10-----10--|--------------------------|-------------------------|----10--9--------------|
E|-------------------------|--------------------------|-------------------------|-----------------------|




    PM PM  PM PM  PM PM
e|----------------------------|----------------------------|-------------------12-14-12----12-14b15----|
B|----------------------------|--8--7------------------10--|--12------12-14-15----------15-------------|
G|----------------------9--7--|--------9--7/9--11--12------|-------------------------------------------|
D|---------7------9--7--------|----------------------------|-------------------------------------------|
A|--7--10-----10--------------|----------------------------|-------------------------------------------|
E|----------------------------|----------------------------|-------------------------------------------|





e|--15--14--12------12-----------|
B|--------------15------15b17----|
G|-------------------------------|
D|-------------------------------|
A|-------------------------------|
E|-------------------------------|



Part6:

e|--------------------------------|------------------------|-----------------------------------|
B|--15------17p15--12------15p12--|------------------------|--15------17p15--12------12h15p12--|
G|--------------------------------|--14\12---11------------|-----------------------------------|
D|--------------------------------|--------------14--------|-----------------------------------|
A|--------------------------------|------------------------|-----------------------------------|
E|--------------------------------|------------------------|-----------------------------------|




                                                                                 PM
e|------------------------|-----------------------------------|------------------------------|
B|------------------------|--15------17p15--12------12h15p12--|------------------------------|
G|--14\12---11------------|-----------------------------------|--14\12---11----------11--12--|
D|--------------14--------|-----------------------------------|--------------14--14----------|
A|------------------------|-----------------------------------|------------------------------|
E|------------------------|-----------------------------------|------------------------------|




    PM PM  PM  PM  PM  PM  PM  PM     PM  PM
e|---------------------------------|--------------------------------|
B|---------------------------------|--------------------------------|
G|--9--12--11--9---11--12--12--12--|--12--11--9---------------------|
D|-----12--12--12--12--12--12------|--12--12-----12--9\7------------|
A|---------------------------------|----------------------10--9--7--|
E|---------------------------------|--------------------------------|



Part7:
    PM  PM      PM      PM      PM         PM      PM      PM
e|----------------------------------|----------------------------------|
B|----------------------------------|----------------------------------|
G|----------16------16------16------|--16------16------16------16--17--|
D|--14--14------14------14------12--|------12--------------------------|
A|----------------------------------|--------------15------15----------|
E|----------------------------------|----------------------------------|




    PM  PM      PM      PM      PM         PM      PM
e|----------------------------------|--------------------------------|
B|----------------------------------|------------------15--15--15----|
G|----------16------16------16------|--16------16--------------------|
D|--14--14------14------14------12--|------12------12----------------|
A|----------------------------------|--------------------------------|
E|----------------------------------|--------------------------------|



    PM  PM      PM      PM      PM         PM  PM

e|----------------------------------|------------------------------|
B|----------------------------------|------------------------------|
G|----------16------16------16------|--16----------16--17--16------|
D|--14--14------14------14------12--|------12------------------17--|
A|----------------------------------|----------15------------------|
E|----------------------------------|------------------------------|





e|-------------------------------------------|----------------------------|
B|-------------------------------------------|----------------------------|
G|--------------14b15br14--16b17br16--16b17--|----br16--------------------|
D|--14--16--17-------------------------------|----------14----------------|
A|-------------------------------------------|------------------12\\------|
E|-------------------------------------------|------------------12\\------|



Part8:
                          PM PM PM    PM PM PM
e|--0----------------|-------------0-----------|--3--------3--------|--------------------|
B|--0----------------|----------3-----3--------|--3--------3--------|--------------------|
G|--0----------------|-------2-----------2-----|--0-----------------|--------x/----x\----|
D|--2----------------|----0-----------------0--|--2-----------------|--------x/----x\----|
A|--2----------------|-------------------------|--3-----------------|--------------------|
E|--0----------------|-------------------------|--------------------|--------------------|



                          PM PM PM      PM PM    PM PM PM      PM PM PM    PM PM PM PM   PM PM PM PM

e|-------------------|-------------3p2--------|-------------------------|----------------------------|
B|--0----------------|----------3-------3-----|-----------1p0--------1--|--0-------------------------|
G|--0----------------|-------2-------------2--|--------0-------0--------|-----0-------------0--------|
D|--2----------------|----0-------------------|-----2-------------2-----|--------0-------4-----------|
A|--2----------------|------------------------|--3----------------------|-----------3/5--------5--7--|
E|--0----------------|------------------------|-------------------------|----------------------------|



Part9:
       PM PM PM       PM PM       PM       PM PM PM         PM           PM         PM
e|--------------------------|--------------------------|-----------------------|---------------------|
B|--------------8--8--------|--7-----7--7-----------8--|--------------------8--|---------------------|
G|--------------9--9--------|--7-----7--7-----------9--|-------7\5--5-------9--|-------7/9--9--------|
D|--------------9--9--------|--7-----7--7-----------9--|-------7\5--5-------9--|-------7/9--9--------|
A|--7-----------7--7--------|--5-----5--5-----------7--|-------5\3--3-------7--|-------5/7--7--------|
E|--0--0--0--0--------0--0--|-----0--------0--0--0-----|----0------------0-----|----0----------------|



    PM PM PM PM       PM PM       PM       PM PM PM         PM           PM         PM

e|--------------------------|--------------------------|-----------------------|---------------------|
B|--------------8--8--------|--7-----7--7-----------8--|--------------------8--|---------------------|
G|--------------9--9--------|--7-----7--7-----------9--|-------7\5--5-------9--|-------7/9--9--------|
D|--------------9--9--------|--7-----7--7-----------9--|-------7\5--5-------9--|-------7/9--9--------|
A|--------------7--7--------|--5-----5--5-----------7--|-------5\3--3-------7--|-------5/7--7--------|
E|--0--0--0--0--------0--0--|-----0--------0--0--0-----|----0------------0-----|----0----------------|



Part10:
    PM PM       PM PM                                  PM PM
e|--------------------------|-----------------------|--------------------------|----------------------------|
B|--------------------------|-----------------------|--------------------------|----------------------------|
G|--------------------------|----------7----7--7----|--------------------------|----------------------------|
D|--------5--5--------4--4--|--5--5-----------------|--------5--5--4--4--4--5--|----5--5--7--7b8br7----5p4--|
A|--------------------------|-----------------------|--------------------------|----------------------------|
E|--5--7--------7--7--------|-----------------------|--5--7--------------------|----------------------------|




    PM PM                            PM PM PM PM PM    PM PM PM PM PM PM PM PM    PM PM PM PM PM   PM PM
e|------------------------|-------------------------|--------------------------|-------------------------|
B|------------------------|-------------------------|--------------------------|-------------------------|
G|------------------------|-------------------------|--------------------------|-------------------------|
D|--------5----4----5--7--|----5--4-----------------|--------------------------|-------------------------|
A|------------------------|----------7--7--------7--|--5--5--5--7-----------5--|--3----------------------|
E|--7--7------------------|----------------7--7-----|--------------7--7--7-----|-----7--5--3--2p0--0--0--|




    PM_____________________________________________________________________________________________________
e|--------------------------|--------------------------|--------------------------|--------------------------|
B|--------------------------|--------------------------|--------------------------|--------------------------|
G|--------------------------|--------------------------|--------------------------|--------------------4--5--|
D|--------------------------|--------------------------|--------------------------|-----------4--5--7--------|
A|--7--5--5--7-----------5--|--3-----------------------|--7--------5--3--3--3-----|--3--5--7-----------------|
E|--------------7--7--7-----|-----7--5--7--7--3--2--0--|-----7--7--------------7--|--------------------------|




    PM_____________________________________________________________________________________________________
e|--------------------------|--------------------------|--------------------------|--------------------------|
B|--------------------------|--------------------------|--------------------------|--------------------------|
G|--------------------------|--------------------------|--------------------------|--------------------4--5--|
D|--------------------------|--------------------------|--------------------------|-----------4--5--7--------|
A|--7--5--5--7-----------5--|--3-----------------------|--7--------5--3--3--3-----|--3--5--7-----------------|
E|--------------7--7--7-----|-----7--5--7--7--3--2--0--|-----7--7--------------7--|--------------------------|




Outro:

e|--12------12--15--14------------|--14--12------12----------------|
B|------12--------------------15--|------------------15--13--12----|
G|------------------------14------|----------12--------------------|
D|--------------------------------|--------------------------------|
A|--------------------------------|--------------------------------|
E|--------------------------------|--------------------------------|





e|--12------12--15--14--------14--|--14--12------12----------------|
B|------12------------------------|------------------15--13--12----|
G|------------------------14------|----------12--------------------|
D|--------------------------------|--------------------------------|
A|--------------------------------|--------------------------------|
E|--------------------------------|--------------------------------|




                          PM                 PM
e|--12------12--15--14--------14--|--12----------12----------------|
B|------12----------------15------|------15--13------15--13--12----|
G|------------------------14------|----------12--------------------|
D|--------------------------------|--------------------------------|
A|--------------------------------|--------------------------------|
E|--------------------------------|--------------------------------|





e|------------------------------|-------------------------------|
B|--12--13--12------------------|-------------------------------|
G|--------------14------12--11--|----12p11----------------------|
D|------------------------------|-----------14----14------------|
A|------------------------------|-------------------------------|
E|------------------------------|-------------------------------|


************************************

| h   Hammer-on
| p   Pull-off
| b   Bend
| br  Bend release
| /   Slide up
| \   Slide down
| PM  Palm mute

************************************

Almost there ...

Sign in to get your own page with links to favourite songs and more. You are just one click away...

Login with Facebook Login with Google