GuitarTabsExplorer icon
GuitarTabsExplorer icon

Log in

Songbook

  • Log in to add and see bookmarks

Last visited songs

  • No songs visited yet...
Slit My Wrists by Buckcherry

Slit My Wrists bass tab by Buckcherry

Bass tabs

G|---------------------------------------------------------------|
D|---------------------------------------------------------------|
A|---------5-5-5-5-0-0-0-3--2--0----------5-5-5-5-0-0-0-3--2--0--|
E|-3-3-3-3------------------------3-3-3-3------------------------|

G|---------------------------------------------------------------|
D|---------------------------------------------------------------|
A|---------5-5---5-0-0-0-3--2--0----------5-5---5-0-0-0-3--2--0--|
E|-3-3---3------------------------3-3---3------------------------|

0:12 x4
G|-----------------------------------------------------------------|
D|o---------------------------------------------------------------o|
A|o---------5-5-5-5-0-0-0-3--2--0----------5-5-5-5-0-0-0-3--2--0--o|
E|--3-3-3-3------------------------3-3-3-3-------------------------|

0:38
G|-------------------------------------------------------------------|
D|o-----------------------------------------------------------------o|
A|o-3-3-3-3-3-3-3-3-5-5-5-5-5-5-5-5-----------------------7---5-5-5-o|
E|----------------------------------3-3-3-3-3-3-3-3-3-3-3------------|

0:50
G|-----------------------------------------------------------------|
D|-----------------------------------------------------------------|
A|-3-3-3-3-3-3-3-3-5-5-5-5-5-5-5-5---------------------------------|
E|---------------------------------3-3-3-3-3-3-3-0---0-0-0-0-0-0-0-|

G|-----------------------------------------------------------------------------|
D|------------------------------------------------------------10-9----10-9-----|
A|-3-3-3-3-3-3-3-3-5-5-5-5-5-5-5-5-10-10-10-10-10-10-10-10-10------10------10--|
E|-----------------------------------------------------------------------------|

1:02 x4
G|-----------------------------------------------------------------|
D|o---------------------------------------------------------------o|
A|o---------5-5-5-5-0-0-0-3--2--0----------5-5-5-5-0-0-0-3--2--0--o|
E|--3-3-3-3------------------------3-3-3-3-------------------------|

1:28
G|-------------------------------------------------------------------|
D|o-----------------------------------------------------------------o|
A|o-3-3-3-3-3-3-3-3-5-5-5-5-5-5-5-5-----------------------7---5-5-5-o|
E|----------------------------------3-3-3-3-3-3-3-3-3-3-3------------|

1:41
G|-----------------------------------------------------------------|
D|-----------------------------------------------------------------|
A|-3-3-3-3-3-3-3-3-5-5-5-5-5-5-5-5---------------------------------|
E|---------------------------------3-3-3-3-3-3-3-0---0-0-0-0-0-0-0-|

1:46
G|-----------------------------------------------------------------|
D|-----------------------------------------------------------------|
A|-3-3-3-3-3-3-3-3-5-5-5-5-5-5-5-5---------------------------------|
E|---------------------------------3-3-3-3-3-0-1-3-3-3-3-3-3-0-1-3-|

1:53               x3
G|---------------------------------|---------------------------------|
D|o-------------------------------o|---------------------------------|
A|o-2-----3-----5-----------------o|-5-----5---5-5-5-3-----3---3-3-3-|
E|------------------3--------------|---------------------------------|
  1 + 2 + 3 + 4 + 1 + 2 + 3 + 4 + 1 + 2 + 3 + 4 + 1 + 2 + 3 + 4 +

G|---------------------------------|---------------------------------|
D|---------------------------------|---------------------------------|
A|-2-----3-----5-------------------|-5-----5---5-5-5-3-----3---3-3-3-|
E|-----------------3---------------|---------------------------------|

G|---------------------------------|---------------------------------|
D|---------------------------------|---------------------------------|
A|-2-----3----/12--10--------------|-5-5-5-5-5-5-5-5-3-3-3---3-3-3-3-|
E|---------------------------------|---------------------------------|

2:18
G|-----------------------------------------------------------------|
D|-----------------------------------------------------------------|
A|-5-5-5-5-5-5-5-5-3-3-3---3-3-3---5-5-5-5-5-5-5-5-3-3-3---3--32-0-|
E|-----------------------------------------------------------------|

2:24
G|--------------------------------------------------------------------|
D|o------------------------------------------------------------------o|
A|o----------5--5--5--0-0---3--2--0-----------5--5--5--0-0---3--2--0-o|
E|--3--3--3--------------------------3--3--3--------------------------|

G|-----------------------------------------------------------------|
D|o---------------------------------------------------------------o|
A|o---------5-5-5-5-0-0-0-3--2--0----------5-5-5-5-0-0-0-3--2--0--o|
E|--3-3-3-3------------------------3-3-3-3-------------------------|

2:49
G|-------------------------------------------------------------------|
D|o-----------------------------------------------------------------o|
A|o-3-3-3-3-3-3-3-3-5-5-5-5-5-5-5-5-----------------------7---5-5-5-o|
E|----------------------------------3-3-3-3-3-3-3-3-3-3-3------------|

3:02
G|-----------------------------------------------------------------|
D|-----------------------------------------------------------------|
A|-3-3---3-3-3-3-3-5-5---5-5-5-5-5---------------------------------|
E|---------------------------------3-3-3-3-3-3-3-0---0-0-0-0-0-0-0-|

3:08
G|---------------------------------------------------------------------|
D|---------------------------------------------------------------------|
A|-3-3-3-3-3-3-3-3-5-5-5-5-5-5-5-5/10-10-2-2-3-3-5-/10--10-7-7-8-8-9-9-|
E|---------------------------------------------------------------------|

3:14
G|-----------------------------------------------------------------|
D|-----------------------------------------------------------------|
A|-3-3-3-3-3-3-3-3-5-5-5-5-5-5-5-5-----------------------7---5-5-5-|
E|---------------------------------3-3-3-3-3-3-3-3-3-3-3-----------|

3:21
G|-----------------------------------------------------------------|
D|-----------------------------------------------------------------|
A|-3-3---3-3-3-3-3-5-5---5-5-5-5-5-----------------------7---5-5-5-|
E|---------------------------------3-3-3-3-3-3-3-3-3-3-3-----------|

3:27
G|-----------------------------------------------------------------|
D|-----------------------------------------------------------------|
A|-3-3---3-3-3-3-3-5-5---5-5-5-5-5---------------------------------|
E|---------------------------------3-3-3-3-3-3-3-0---0-0-0-0-0-0-0-|

G|-----------------------------------------------------------------|
D|-----------------------------------------------------------------|
A|-3-3-3-3-3-3-3-3-5-5-5-5-5-5-5-5---------------------------------|
E|---------------------------------3-3-3-3-3-3-3-0---0-0-0-0-0-0-0-|

G|-----------------------------------------------------------------|
D|-----------------------------------------------------------------|
A|-3-3---3-3-3-3-3-5-5---5-5-5-5-5---------------------------------|
E|---------------------------------3-3-3-3-3-3-3-0---0-0-0-0-0-0-0-|

G|----------------------------------------|
D|----------------------------------------|
A|-3-3-3-3-3-3-3-3-5-5-5-5-5-5-5-5--------|
E|---------------------------------3~~~~~-|

[ Privacy | About us ]

Welcome to the guitar community

Why join and log in?
- Get songbook with favourite songs
- Get custom made front page
- Submit chords and tabs
- Submit guitar-cover videos
- Get a lot of thumbs up for your work

Songbook

Last visited songs

Site
Home
Search
Community
Submit chords

Video

No video for this page. Check out how you can submit guitar-cover videos here

Search tabs and chords

Browse by artist

A B C D E F G H I J K L M N O P Q R S T U V W X Y Z #


Menu

Search

Video

Bookmark

Login