GuitarTabsExplorer icon
GuitarTabsExplorer icon

Log in

Songbook

  • Log in to add and see bookmarks

Last visited songs

  • No songs visited yet...
Everything by Buckcherry

Bass tabs

0:03
G|-----------------------------------------------------------------|
D|-----------------------------------------------------------------|
A|-----------------------------------------------------------------|
E|-9-9-9-4-4-4-4-5-5-5-5-7-7--45-7-9-9-9-4-4-4-4-5-5-5-5-7-7-7-7-7-|

G|-----------------------------------------------------------------|
D|-----------------------------------------------------------------|
A|-----------------------------------------------------------------|
E|-9-9-9-4-4-4-4-5-5-5-5-7-7--45-7-9-9-9-4-4-4-4-5-5-5-5-7-7--45-7-|

0:18
G|-------------------------------------------------------------------|
D|o-----------------------------------------------------------------o|
A|o-----------------------------------------------------------------o|
E|--9-9-9-4-4-4-4-5-5-5-5-7-7-4-5-7-9-9-9-4-4-4-4-5-5-5-5-7-7-7-7-7--|

0:32
G|--------------------------------------------------------|
D|--------------------------------------------------------|
A|--------------------------------------------------------|
E|-5~--0~--7~-----5~--0~--7-7-7-7-7-7-7-7-7-7-7-7-7-7-7-7-|

0:48
G|--------------------------------------------------------------------|
D|--------------------------------------------------------------------|
A|-7--77--77----------------------------------------------------------|
E|------------2455597--77--77--779755--55--55--454200--00--00--205475-|

1:02
G|-------------------------------------------------------------------|
D|o-----------------------------------------------------------------o|
A|o-----------------------------------------------------------------o|
E|--9-9-9-4-4-4-4-5-5-5-5-7-7-4-5-7-9-9-9-4-4-4-4-5-5-5-5-7-7-7-7-7--|

1:17
G|-------------------------------------------------------------------------|
D|-------------------------------------------------------------------------|
A|---------------------------------------------------------------------5-6-|
E|-5~--0~--7~---/12-10-8-7-5-4-2-0-5~--0~--7-7-7-7-7-7-7-7-7-7-7-7-7-7-----|

1:33
G|---------------------------------------------------------------------|
D|---------------------------------------------------------------------|
A|-7--77--77--7---------------------------------------------/775-/77---|
E|-------------455597--77--77--779755--55--55--454200--00--0----7---45-|

1:48
G|------------------------------------------------------------------------|
D|------------------------------------------------------------------------|
A|-7--77-77---------------------/12-875------------------------/775-/77---|
E|---------/9--7995977--77--77---------5--55--55--454200--00--0----7---45-|
2:03
G|---------------------------------------------------------------------------------------|
D|---------------------------------------------------------------------------------------|
A|---------------------------------------------------------------------------------------|
E|-3~-33~-33~-/10--8-7-12-10~-810~-810~-8108101213~-1313~-1313~-121312578~-88~-887538753-|

2:18
G--------------------------------------------------------------------------------------------------|
D--------------------------------------------------------------------------------------------------|
A---------------------------------------12---/12109------------------------1214-------10-----------|
E-3~-33~-33~-/10121081087810~-1010~-1010---10------1213~-1313~-1213~-121312----8~-88~---88~-787810-|

2:33
G|---------------------------------------------------------------------------------|
D|---------------------------------------------------------------------------------|
A|---------------------------------------------------------------------------------|
E|-3~-33~-33~-3323510~-810~-810~-8108101213~-1313~-1313~-12131213--12--121212-12-0-|

2:48
G|-------------------------------------------------------------------|
D|o-----------------------------------------------------------------o|
A|o-----------------------------------------------------------------o|
E|--9-9-9-4-4-4-4-5-5-5-5-7-7-4-5-7-9-9-9-4-4-4-4-5-5-5-5-7-7-7-7-7--|

3:03
G|-------------------------------------------------------------------|
D|-------------------------------------------------------------------|
A|-------------------------------------------------------------------|
E|-5-5-5-5-5-5-5-5-5-0-0-0-0-0-0-0-0-7-7-7-7-7-7-7-7-7-7-7-r-7-7-7-7-|

3:10
G|------------------------------------|
D|------------------------------------|
A|------------------------------------|
E|-5-5-5-5-5-5-5-5-0-0-0-0-0-0-0-0-7~-|

3:18
G|----------------------------------------------------------------------|
D|----------------------------------------------------------------------|
A|-9--99--99-------------------------------------------------/997-/94/9-|
E|------------267-119--99--99--9911967--77--77--676422--22--2----9------|

3:33
G|----------------------------------------------------------------------------|
D|---------/13--11-87---------------------------------------------------------|
A|-9--99--9----------10--------/12-/12-121087------------------------97649769-|
E|---------------------9--99--9---9---9------7--77--77---6-4-22--22-2---------|

3:48
G|--------------------------------------------------------------------|
D|--------------------------------------------------------------------|
A|-9--99--99-7-6------------9-7-6-----------99-7-6------------9-6-7-8-|
E|---------------9--9--99--9------9-77--77---------9-22--22--2--------|

G|-------------------------------------------------------|
D|-------------------------------------------------------|
A|-9--99--99-7-6------------9-7-6-----------99-7-6-------|
E|---------------9--9--99--9------9-77--77---------9-22~-|

[ Privacy | About us ]

Welcome to the guitar community

Why join and log in?
- Get songbook with favourite songs
- Get custom made front page
- Submit chords and tabs
- Submit guitar-cover videos
- Get a lot of thumbs up for your work

Songbook

Last visited songs

Site
Home
Search
Community
Submit chords

Video

No video for this page. Check out how you can submit guitar-cover videos here

Search tabs and chords

Browse by artist

A B C D E F G H I J K L M N O P Q R S T U V W X Y Z #


Menu

Search

Video

Bookmark

Login