Search tabs and chords

Search for song, artist or band

Log in

One click and you are in

Login with Facebook Login with Google

Why sign up and log in

Guitar Tabs Explorer
Michael Bublé bass tabs for To love somebody

Bass tabs

-------------------------------------------------------------------------------
To Love Somebody - Michael Bublé
-------------------------------------------------------------------------------


Tuning: Standard
Intro:
You can hold for half a second the last note of every part(66-9-6-9)

And also hold every note of the last part for hal second (-9--7-----)
(------7\2-)

Another arange can be using hammers like this(-66h9--6h9-)

G|---------------------------------------------------------------------------|
D|---------------------------------------------------------------------------|
A|--66-9-6-9---66-9-6-9---66-9-6-9---9-7-------------------------------------|
E|----------------------------------------7\2--------------------------------|

Verse 1: x2

G|---------------------------------------------------------------------------|
D|---------------------------------------------------------------------------|
A|-9--99-9--9-------------------------9--99-9--9--7--77-7--7--9--99-9--9-----|
E|-------------4--44-4--4\7--77-7--7-----------------------------------------|

G|---------------------------------------------------------------------------|
D|---------------------------------------------------------------------------|
A|---------------------------------------------------------------------------|
E|-9--99-9--9--7--77-7--7----------------------------------------------------|

Chorus 1

G|---------------------------------------------------------------------------|
D|---------------------------------------------------------------------------|
A|-9--9--9--9--------------------------9--9--9\---------------------9---9-9--|
E|-------------9--9--9--9--7--7--7--7-------------9---9-9--7---7-7-----------|

G|---------------------------------------------------------------------------|
D|---------------------------------------------------------------------------|
A|-9--7----------------------------------------------------------------------|
E|-------7\2-----------------------------------------------------------------|

Verse 2: x2

G|---------------------------------------------------------------------------|
D|---------------------------------------------------------------------------|
A|-9--99-9--9-------------------------9--99-9--9--7--77-7--7--9--99-9--9-----|
E|-------------4--44-4--4\7--77-7--7-----------------------------------------|

G|---------------------------------------------------------------------------|
D|---------------------------------------------------------------------------|
A|---------------------------------------------------------------------------|
E|-9--99-9--9--7--77-7--7----------------------------------------------------|

Chorus
It is almost the same you just play one extra part (opcional) that is the
change of rhythm (-99-99-99-99-) just follow the song

G|---------------------------------------------------------------------------|
D|---------------------------------------------------------------------------|
A|-9--9--9--9--------------------------9--9--9\-------------------9--9-9\----|
E|-------------9--9--9--9--7--7--7--7------------9--9-9\--7--7-7\------------|

G|---------------------------------------------------------------------------|
D|---------------------------------------------------------------------------|
A|-99-99-99-99---------------------------------------------------------------|
E|---------------------------------------------------------------------------|

outro:

It is like a chorus with am Intro

G|---------------------------------------------------------------------------|
D|---------------------------------------------------------------------------|
A|--9--9--9--9--------------------------9--9--9--9---------------------------|
E|--------------9--9--9--9--7--7--7--7---------------------------------------|

G|---------------------------------------------------------------------------|
D|---------------------------------------------------------------------------|
A|--9--9--9--9--------------------------9--9--9\-----------------------------|
E|--------------9--9--9--9--7--7--7--7---------------------------------------|

G|---------------------------------------------------------------------------|
D|---------------------------------------------------------------------------|
A|------------------9--9-9\----------9--66-9-6-9--66-9-6-9--66-9-6-9--9-7----|
E|-9--9-9\--7--7-7\-----------9---7---------------------------------------7\2|


| /  slide up
| \  slide down
| h  hammer-on
| p  pull-off
| ~  vibrato
| +  harmonic
| x  Mute note

Almost there ...

Sign in to get your own page with links to favourite songs and more. You are just one click away...

Login with Facebook Login with Google