Search tabs and chords

Search for song, artist or band

Log in

One click and you are in

Login with Facebook Login with Google

Why sign up and log in

Guitar Tabs Explorer
Michael Bublé bass tabs for Quando quando quando

Quando Quando Quando bass tab by Michael Bublé

Michael Bublé bass tabs for Quando quando quando

Bass tabs

-------------------------------------------------------------------------------
Quando Quando Quando - Michael Buble feat. Nelly Furtado
-------------------------------------------------------------------------------
Tabbed by: pineappleaffair
E-mail: nunu_rampai@yahoo.co.id

Tuning: Standard

Such a great song, great music, and here is the bass tabs.

Intro
(0:08)                                            Tell me when.....
G|---------9s11~~-----------9s11~~-----------9~~-----------------------------|
D|------9----------------9----------------9----------------------------------|
A|---7----------------7----------------7-------------------------------------|
E|--------------------------------------------------------------------12\----|
Verse
(0:16) mine...
G|---------------------------------------------------------------------------|
D|---------------------------------------------------------------------------|
A|-----------9-----9-----------9-----------------2-----2-----------2---------|
E|---7---7-------------7---7---------7---0---0-------------0---0-------0-----|

(0:25) quando...
G|---------------------------------------------------------------------------|
D|-----------------------------------6---7-----------------------------------|
A|-----------7-----7-----------7-----------------7---------------------------|
E|---5---5-------------5---5-----------------5---------2~~-------1~~---------|

(0:33) divine...
G|---------------------------------------------------------------------------|
D|---------------------------------9-----------------------------------------|
A|-----------9-----9-----------9------9-----------2-----2-----------2--------|
E|---7---7-------------7---7-------------0---0-------------0---0-------0-----|

(0:41) again...
G|---------------------------------------------------------------------------|
D|---------------------------------------------------------------------------|
A|-----------7-----7-----------7-----------------7---------------------------|
E|---5---5-------------5---5---------0---5---5---------2~~-------1~~---------|

(0:50) say yes to me...
G|---------------------------------------------------------------------------|
D|---------------------------------------------------------------------------|
A|-----------9-----9-----------9-----------------2-----2-----------2---------|
E|---7---7-------------7---7---------7---0---0-------------0---0-------0-----|

(0:58) quando...
G|---------------------------------------------------------------------------|
D|-----------------------------------6---7-----------------------------------|
A|-----------7-----7-----------7-----------------7---------------------------|
E|---5---5-------------5---5-----------------5---------2~~-------1~~---------|

(1:06) happiness to me...
G|---------------------------------------------------------------------------|
D|---------------------------------9-----------------------------------------|
A|-----------9-----9-----------9------9-----------2-----2-----------2--------|
E|---7---7-------------7---7-------------0---0-------------0---0-------0-----|

(1:15) tell me when...
G|---------------------------------------------------------------------------|
D|------------------------------9s11p9s7-------------------------------------|
A|-----------7--------------0------------9-7---------------------------------|
E|---5---5----------0---5--------------------9-7-0-5~-------2~~----1~~-------|

Chorus

(1:23) a day....
G|---------------------------------------------------------------------------|
D|------------------------------9-----9--------------------------------------|
A|-----------2------2---------------------0------7---7-----------7-----------|
E|---0---0--------------0---0------0---------5-----------5---5---------------|


(1:31) a lifetime...
G|--------------------------9s11---9h11--------------------------------------|
D|-----------7------0---7-----------------7---0-----6---7--------------------|
A|---5---5-------------------------------------------------------------------|
E|-------------------------------------------------------------2~~----1~~----|

(1:39) the way....
G|---------------------------------------------------------------------------|
D|---------------------------------------------------------------------------|
A|------------------9-----------9-----------------------9-----------9--------|
E|---2---0---5----------7---7------7--0--1--2---0---2-------7---7------------|

(1:47) beyond compare....
G|---------------------------------------------------------------------------|
D|---9-----------------------------------------------------------------------|
A|------9--------------------7~~---------------------------------------------|
E|---------0~~~--------------------------------------------------------------|



(1:56) a moment more....
G|---------------------------------------------------------------------------|
D|---------------------------------------------------------------------------|
A|-------2--------------2-------2-------------2----2-----------2-------------|
E|---2---------0--2--0-------0-----2--0---0------------0---0-----------------|

(2:03) quando quando....
G|---------------------------------------------------------------------------|
D|---------------------------------------------------------------------------|
A|-----------------7-------2------------2--3--4-------------9--9--7----------|
E|---0---5-----5-------0-------0--2--5-------------2--2--------------10--9---|

(2:13) you adore....
G|---------------------------------------------------------------------------|
D|---------------------------------------------------------------------------|
A|-----------9-----9-----------9-----------------2-----2-----------2---------|
E|---7---7-------------7---7---------7---0---0-------------0---0-------0-----|

(2:21) tell me when....
G|---------------------------------------------------------------------------|
D|-----------------------------------9---7-----------------------------------|
A|-----------7-----7-----------7-----------------7---7-----------------------|
E|---5---5-------------5---5-----------------5-----------5-------------------|



Interlude
(2:29)

G|---------------------------------------------------------------------------|
D|-------------------8-9-----------------------------------------------------|
A|-----------9----------------9---------------2-----2-----------2------------|
E|---7---7-----------------7------7---0---0-------------0---0-------0--------|

G|---------------------------------------------------------------------------|
D|----------------------------------------------------3-4--------------------|
A|-----------7-----7-----------7----------------7----------------------------|
E|---5---5-------------5---5--------0---5---5--------------2--5--1--0--------|


G|---------------------------------------------------------------------------|
D|---------------------------------------------------------------------------|
A|-----------9-----9-----------9-----------------2-----2-----------2---------|
E|---7---7-------------7---7---------7---0---0-------------0---0-------0-----|

G|---------------------------------------------------------------------------|
D|-----------------------------------9---7-----------------------------------|
A|-----------7-----7-----------7-----------------7---------------------------|
E|---5---5-------------5---5-----------------5---------2~~-------1~~---------|



(3:02) a day....
G|------------------------------------------2s4------------------------------|
D|------------------------------------------2s4------------------------------|
A|-----------2------2-----------2-------0---------7-----------7--------------|
E|---0---0--------------0---0-------0-----------------5---5--------5---------|

(3:10) a lifetime....
G|---------------------------------------------------------------------------|
D|--------7--7------9---7----------------------------------------------------|
A|---5------------------------9---7-------5----------------------------------|
E|------------------------------------5---------0---5-----0~~----1~~---------|

(3:19) the way....
G|-----------------------2h4--2----------------------------------------------|
D|----------------4----------------------------------------------------------|
A|-------------------2----------2--------------------9-----------9-----------|
E|---2---0---5---------------------5--2------0---2-------7---7---------------|

(3:26) beyond compare....
G|---------------------------------------------------------------------------|
D|---9-----------------------------------------------------------------------|
A|------9--------------------7~~---------------------------------------------|
E|---------0~~~--------------------------------------------------------------|



(3:35) I can't wait a moment more....
G|---------------------------------------------------------------------------|
D|----------7----------------------------------------------------------------|
A|---5--5------5--5--0------------------5-----------7------------------------|
E|----------------------3---0---3---5-------5--5--------5----7---0-----------|

(3:44) quando quando....
G|---------------------------------------------------------------------------|
D|---------------------------------------------------------------------------|
A|------------------1--2-------2-----------------------2-------2-------------|
E|---2---0---2---5---------0-------0---2---0---2---0-------0-----------------|

(3:52) you adore....
G|---------------------------------------------------------------------------|
D|-----------------------------------2---------------------------------------|
A|-----------------------2--------------2------------------------------------|
E|---0---2---0---2---0-------0---2---------0~~-------------------------------|



Outro
(3:59)

G|---------------------------------------------------------------------------|
D|---------------------------------------------------------------------------|
A|-----------7-----7-----------7-----------------2-----2-----------2---------|
E|---5---5-------------5---5---------5---0---0-------------0---0-------0-----|


G|---------------------------------------------------------------------------|
D|---------------------------------------------------------------------------|
A|-----------7-----7-----------7-----------------2-----2-----------2---------|
E|---5---5-------------5---5---------5---0---0-------------0---0-------0-----|

G|---------------------------------------------------------------------------|
D|---------------------------------------------------------------------------|
A|-----------7-----7-----------7-----------------2-----2-----------2---------|
E|---5---5-------------5---5---------5---0---0-------------0---0-------0-----|


G|---------------------------------------------------------------------------|
D|---------------------------------------------------------------------------|
A|-----------7-----7-----------7-----------------2-----2---------------------|
E|---5---5-------------5---5---------5---0---0-------------0~~-------5~~-----|



| /  slide up
| \  slide down
| h  hammer-on
| p  pull-off
| ~  vibrato
| +  harmonic
| x  Mute note

Almost there ...

Sign in to get your own page with links to favourite songs and more. You are just one click away...

Login with Facebook Login with Google