Search tabs and chords

Search for song, artist or band

Log in

One click and you are in

Login with Facebook Login with Google

Why sign up and log in

Guitar Tabs Explorer
Michael Bublé guitar tabs for Holly jolly christmas

Solo tabs

Solo

e|------------------------------------------------------10------------------------|
B|--15b-15-13---13---------------15b-15-13---13------12----12-10----10------------|
G|------------14--14-----------------------14--------------------12----12-9---12--|
D|------------------13-13-13------------------------------------------------9-----|
A|--------------------------------------------------------------------------------|
E|--------------------------------------------------------------------------------|

e|--------------------------------------------------------------------------------|
B|----------------------------------------13-16p13-------------------13-----------|
G|--12p10--12p10--14b15r14p12-14-12--12h14---------14p12-------12-14--------------|
D|-------------------------------------------------------12-14--------------------|
A|--------------------------------------------------------------------------------|
E|--------------------------------------------------------------------------------|

e|----------------------------------------------12------15/-----------------------|
B|--------------------------13-13-13---------13-----------------------------------|
G|--14-12---------------12-------------14-12------------------12121212-12-14b-12--|
D|--------14----------14----------------------------------------------------------|
A|-----------14-15--15------------------------------------------------------------|
E|------------------(rake)--------------------------------------------------------|

e|-----------------------------------------------------------|
B|-------------------13-15b15br-15b15br-15p13----------------|
G|--14b-12---12h14--------------------------14-12------------|
D|--------------------------------------------------15-14----|
A|--------------------------------------------------------15-|
E|-----------------------------------------------------------|



 Outro

e|--------------12-------------------|
B|--------13-15-------------15----13-|
G|--12-14----------12----------------|
D|--------------------15-14----14----|
A|-----------------------------------|
E|-----------------------------------|

Other versions of Holly Jolly Christmas

Holly jolly christmasChords
Holly jolly christmas (Ver. 2)Chords

Almost there ...

Sign in to get your own page with links to favourite songs and more. You are just one click away...

Login with Facebook Login with Google