Search tabs and chords

Search for song, artist or band

Log in

One click and you are in

Login with Facebook Login with Google

Why sign up and log in

Guitar Tabs Explorer
Michael Bublé bass tabs for Feeling good

Bass tabs

Feeling Good
Michael Buble
It's Time

This is my first bass tab hope others think its good :)
It didn't take me long so if there are any mistakes feel free to point them out

g----------------------------------|
d--5---5-3---3-1---1-0--3-0-3-5----|
a----------------------------------| x 2
e----------------------------------|

g----------------------------------------------------------------|
d--5---5-3---3-2---2-1---1-0---0---------------------------------|
a--------------------------------3---3-1---1-0--0-3-3-3-3-3-4-5--|
e----------------------------------------------------------------|

g------------------|
d--5--------5------|
a------------------|
e------3--------3--|

g---------------------------2-|
d--5---5-3---3-1---1-0---4----|
a-----------------------------| x 2
e-----------------------------|

g--3---3-1---1-----------------------------------|
d--------------1---1-----------------0-1---1-0---|
a--------------------3---3-1---1---1-------------|
e--------------------------------3---------------|

g----------------------------------|
d--5---5-3---3-1---1-0--3-0-3-5----|
a----------------------------------| x 2
e----------------------------------|

g------------------------------------------------------------------|
d-5---5-3---3-1---1-0---0------------------------------------1-----|
a-------------------------5---5-3---3-1---1-0--0-3---0-------------|
e----------------------------------------------------------1-------|

g-----------------------------------|
d-----------------------------------|
a-5-5-5-5-5-3-5-5-5-5-5-3-5-5-5-5-5-|
e-----------------------------------|

g----------------------------------|
d--5---5-3---3-1---1-0--3-0-3-5----|
a----------------------------------| x 2
e----------------------------------|

g----------------------------------------------------------------|
d--5---5-3---3-2---2-1---1-0---0---------------------------------|
a--------------------------------3---3-1---1-0--0-3-3-3-3-3-4-5--|
e----------------------------------------------------------------|

Almost there ...

Sign in to get your own page with links to favourite songs and more. You are just one click away...

Login with Facebook Login with Google