Search tabs and chords

Search for song, artist or band

Log in

One click and you are in

Login with Facebook Login with Google

Why sign up and log in

Guitar Tabs Explorer
Michael Bublé guitar tabs for Everything acoustic intro

Guitar tabs with lyrics

-------------------------------------------------------------------------------
EVERYTHING - Michael Bublé
-------------------------------------------------------------------------------

This is a fingerstyle rendition of the intro from Everything by Michael Bublé.
Listen to the song to get the right tempo and note timing. Enjoy!

/ - slide up
h - hammer on
^ - play with a smooth, downward motion with your fingers*

* In this case, pluck each string consecutively - starting from the G chord diagramGG
to the e string - with your index, middle, and ring fingers, producing
a sound similar to what you would get from slowly strumming the strings
downward with a pick.

The apostrophes (') at the bottom of the tabs were added for timing reference.
Think of them as metronome clicks or counts (one, two, three, four) - then play
accordingly.

e||--------2---------------|----2----^0---------------|--------2---------------|
B||------------------------|---------^0----3-------3--|------------------------|
B||-1/2-------------2----1-|---------^0------------0--|---1/2----------2----1--|
B||-0--------------------2-|--------------------------|-0-------------------2--|
B||-----------2------------|--------------------------|-----------2------------|
E||------------------------|-0--------3--------3------|------------------------|
'      '     '     '     '     '     '     '        '      '     '    '

e||----2----^0---------------|--------2----------------|----2----^0------------|
B||---------^0-----3-------3-|-------------------------|---------^0-----3------|
B||---------^0-----2--2h4--2-|---1/2-----------2----1--|---------^1----------0-|
B||--------------------------|-0--------------------2--|-----------------------|
B||--------------------------|-----------2-------------|-----------------------|
E||-0--------3--------3------|-------------------------|-0--------0--------0-2-|
'     '     '     '        '      '     '     '      '     '     '     '

e||-------2--0--------------|-------------------------||
B||----0-----------3-----3--|----------------3--------||
B||-------------------------|-0h2------0--------------||
B||-------------------------|-0--------0--------------||
B||----------0--------------|-------------------------||
E||-3-----------------------|-------------------------||

Other versions of Everything Acoustic Intro

Everything acousticChords

Almost there ...

Sign in to get your own page with links to favourite songs and more. You are just one click away...

Login with Facebook Login with Google