Log in

One click and you are in

Login with Facebook Login with Google

Why sign up and log in

Guitar Tabs Explorer
BTS bass tabs for Filter

Bass tabs

Tuning: Standard (E A D G)


Pre-Chorus:
(starts at 0:26)

G|-----------------------------------------------|
D|-----------------------------------------------|
A|---------3-3-3-3-------------------------------|
E|-1-1-6-6---------------------------------------|x2

Chorus:

G|-----------------------------------------------|
D|-----------------------------------------------|
A|-8-8---------3-3---3-3-------------------------|
E|-----4-6-6-4-----6-----6-----------------------|x2


Verse:

G|--------------------------------------------------|
D|--------------------------------------------------|
A|-8-8---3-3-3-3------------------------------------|
E|----6-6-------------------------------------------|x2


Pre-Chorus:

G|-----------------------------------------------|
D|-----------------------------------------------|
A|---------3-3-3-3-------------------------------|
E|-1-1-6-6---------------------------------------|x2


Chorus:

G|-----------------------------------------------|
D|-----------------------------------------------|
A|-8-8---------3-3---3-3-------------------------|
E|-----4-6-6-4-----6-----6-----------------------|x2


Bridge:

G|-----------------------------------------------|
D|-----------------------------------------------|
A|-8-8---------3-3---3-3-------------------------|
E|-----4-6-6-4-----6-----6-----------------------|x2


Chorus:

G|-----------------------------------------------|
D|-----------------------------------------------|
A|-8-8---------3-3---3-3-------------------------|
E|-----4-6-6-4-----6-----6-----------------------|x2


Outro:

G|-----------------------------------------------|
D|-----------------------------------------------|
A|-8-8---------3-3---3-3-------------------------|
E|-----4-6-6-4-----6-----6-----------------------|x2


G|--------------------------------------------------|
D|--------------------------------------------------|
A|-8-8---3-3-3--------------------------------------|
E|----6-6-------------------------------------------|

Almost there ...

Sign in to get your own page with links to favourite songs and more. You are just one click away...

Login with Facebook Login with Google