Log in

One click and you are in

Login with Facebook Login with Google

Why sign up and log in

Guitar Tabs Explorer
BTS bass tabs for Dynamite

Bass tabs with lyrics

Tuning: Standard (E A D G)


Intro:

'Cause I, I, I'm in the stars tonight
G|------------------------------------|
D|------------------------------------|
A|------------------------------------|
E|------------------------------------|

So watch me bring the fire and set the
night alight
G|------------------------------------|
D|------------------------------------|
A|------------------------------------|
E|---------------------------------12\|

Verse 1:

Shoes on, get up in the morn'
Cup of milk, let's rock and roll
G|------------------------------------|
D|------------------------------------|
A|--------------4---------------------|
E|0----0----0-----4---2----2----2----2|

King Kong, kick the drum
Rolling on like a Rolling Stone
G|------------------------------------|
D|------------------------------------|
A|----------------------7----7---7---7|
E|2/4--7---7---7----7/9---------------|

Sing song when I'm walking home
Jump up to the top, LeBron
G|------------------------------------|
D|------------------------------------|
A|--------------4---------------------|
E|0----0----0-----4---2----2----2----2|

Ding-dong, call me on my phone
Ice tea and a game of ping pong
G|------------------------------------|
D|------------------------------------|
A|---------------------7---7--7--7-12\|
E|2/4--7---7---7---7/9----------------|


Pre-chorus:

This is getting heavy,
can you hear the bass boom? I'm ready
(Woo-hoo)
G|------------------------------------|
D|------------------------------------|
A|--------------4---------------------|
E|0----0----0-----4---2----2----2----2|

Life is sweet as honey, yeah,
this beat cha-ching like money, huh
G|------------------------------------|
D|------------------------------------|
A|----------------------7----7---7---7|
E|2/4--7---7---7----7/9---------------|


Disco overload, I'm into that,
I'm good to go, I'm diamond,
you know I glow up
G|------------------------------------|
D|------------------------------------|
A|--------------4---------------------|
E|0----0----0-----4---2----2----2----2|

Hey, so let's go
G|------------------------------------|
D|------------------------------------|
A|------------------------------------|
E|--------------------------------12\-|


Chorus:

'Cause I, I, I'm in the stars tonight
G|------------------------------------|
D|------------------------------------|
A|------------------------------------|
E|11---9---7---6---4---2-2------------|

So watch me bring the fire
and set the night alight (Hey)
G|------------------------------------|
D|------------------------------------|
A|------------------------------------|
E|11---9---7---6---4---2-2------------|

Shining through the city
with a little funk and soul
G|------------------------------------|
D|------------------------------------|
A|------------------------------------|
E|11---9---7---6---4---2-2------------|

So I'ma light it up like dynamite,
woah-oh-oh
G|------------------------------------|
D|------------------------------------|
A|------------------------------------|
E|11---9---7---6---4---2-2-------/12--|


Verse 2:

Bring a friend, join the crowd,
whoever wanna come along
G|------------------------------------|
D|------------------------------------|
A|--------------4---------------------|
E|0----0----0-----4---2----2----2----2|

Word up, talk the talk,
just move like we off the wall
G|------------------------------------|
D|------------------------------------|
A|----------------------7----7---7---7|
E|2/4--7---7---7----7/9---------------|


Day or night, the sky's alight,
so we dance to the break of dawn (Hey)
G|------------------------------------|
D|------------------------------------|
A|--------------4---------------------|
E|0----0----0-----4---2----2----2----2|

Ladies and gentlemen, I got the medicine
so you should keep ya eyes on the ball
G|------------------------------------|
D|------------------------------------|
A|---------------------7--7--7--7-12\-|
E|2/4--7---7---7----7/9---------------|


Pre-chorus:

This is getting heavy,
can you hear the bass boom? I'm ready
(Woo-hoo)
G|------------------------------------|
D|------------------------------------|
A|--------------4---------------------|
E|0----0----0-----4---2----2----2----2|

Life is sweet as honey, yeah,
this beat cha-ching like money, huh
G|------------------------------------|
D|------------------------------------|
A|----------------------7----7---7---7|
E|2/4--7---7---7----7/9---------------|

Disco overload, I'm into that,
I'm good to go, I'm diamond,
you know I glow up
G|------------------------------------|
D|------------------------------------|
A|--------------4---------------------|
E|0----0----0-----4---2----2----2----2|

Hey, so let's go
G|------------------------------------|
D|------------------------------------|
A|------------------------------------|
E|--------------------------------12\-|


Chorus:

'Cause I, I, I'm in the stars tonight
G|------------------------------------|
D|------------------------------------|
A|------------------------------------|
E|11---9---7---6---4---2-2------------|

So watch me bring the fire
and set the night alight (Hey)
G|------------------------------------|
D|------------------------------------|
A|------------------------------------|
E|11---9---7---6---4---2-2------------|

Shining through the city
with a little funk and soul
G|------------------------------------|
D|------------------------------------|
A|------------------------------------|
E|11---9---7---6---4---2-2------------|

So I'ma light it up like dynamite,
woah-oh-oh
G|------------------------------------|
D|------------------------------------|
A|------------------------------------|
E|11---9---7---6---4---2-2-------/12--|


Post Chorus:

Dyn-na-na-na, na-na-na-na-na, na-na-na,
life is dynamite
G|------------------------------------|
D|------------------------------------|
A|------------------------------------|
E|-7-7-7-7-7-7-7-7-7-7-7-7-7-7-7-7-7-7|

Dyn-na-na-na, na-na-na-na-na, na-na-na,
life is dynamite
G|------------------------------------|
D|------------------------------------|
A|------------------------------------|
E|-7-7-7-7-7-7-7-7-7-7-7-7-7-7-7-7-7-7|

Shining through the city
with a little funk and soul
G|------------------------------------|
D|------------------------------------|
A|------------------------------------|
E|11---9---7---6---4---2-2------------|

So I'ma light it up like dynamite,
woah-oh-oh
G|------------------------------------|
D|------------------------------------|
A|------------------------------------|
E|11---9---7---6---4---2-2-------/12--|


Bridge:

Dyn-na-na-na, na-na, na-na, ayy
Dyn-na-na-na, na-na, na-na, ayy
G|------------------------------------|
D|------------------------------------|
A|------------------------------------|
E|-7-7-7-7-7-7-7-7-7-7-7-7-7-7-7-7-7-7|

Dyn-na-na-na, na-na, na-na, ayy
Light it up like dynamite
G|--------------------8-8-8-8-8-8-8-8-|
D|------------------------------------|
A|------------------------------------|
E|-7-7-7-7-7-7-7-7-7------------------|

Dyn-na-na-na, na-na, na-na, ayy
Dyn-na-na-na, na-na, na-na, ayy
G|------------------------------------|
D|------------------------------------|
A|------------------------------------|
E|-7-7-7-7-7-7-7-7-7-7-7-7-7-7-7-7-7-7|

Dyn-na-na-na, na-na, na-na, ayy
Light it up like dynamite
G|--------------------8-8-8-8-8-8-8-8-|
D|------------------------------------|
A|------------------------------------|
E|-7-7-7-7-7-7-7-7-7------------------|


Chorus:

'Cause I, I, I'm in the stars tonight
G|------------------------------------|
D|------------------------------------|
A|------------------------------------|
E|------------------------------------|

So watch me bring the fire
and set the night alight (Hey)
G|------------------------------------|
D|------------------------------------|
A|------------------------------------|
E|------------------------------------|

Shining through the city
with a little funk and soul
G|------------------------------------|
D|------------------------------------|
A|------------------------------------|
E|------------------------------------|

So I'ma light it up like dynamite,
woah-oh-oh
G|------------------------------------|
D|------------------------------------|
A|------------------------------------|
E|--------------------------------12\-|

'Cause I, I, I'm in the stars tonight
G|------------------------------------|
D|------------------------------------|
A|------------------------------------|
E|11---9---7---6---4---2-2------------|

So watch me bring the fire
and set the night alight (Hey)
G|------------------------------------|
D|------------------------------------|
A|------------------------------------|
E|11---9---7---6---4---2-2------------|

Shining through the city
with a little funk and soul
G|------------------------------------|
D|------------------------------------|
A|------------------------------------|
E|11---9---7---6---4---2-2------------|

So I'ma light it up like dynamite,
woah-oh-oh
G|------------------------------------|
D|------------------------------------|
A|------------------------------------|
E|11---9---7---6---4---2-2--------/12-|


Post Chorus:

Dyn-na-na-na, na-na-na-na-na, na-na-na,
life is dynamite
G|------------------------------------|
D|------------------------------------|
A|------------------------------------|
E|-7-7-7-7-7-7-7-7-7-7-7-7-7-7-7-7-7-7|

Dyn-na-na-na, na-na-na-na-na, na-na-na,
life is dynamite
G|------------------------------------|
D|------------------------------------|
A|------------------------------------|
E|-7-7-7-7-7-7-7-7-7-7-7-7-7-7-7-7-7-7|

Shining through the city
with a little funk and soul
G|------------------------------------|
D|------------------------------------|
A|------------------------------------|
E|11---9---7---6---4---2-2------------|

So I'ma light it up like dynamite,
woah-oh-oh
G|------------------------------------|
D|------------------------------------|
A|------------------------------------|
E|11---9---7---6---4---2-2-------/12--|


************************************

| \ Slide down
| / Slide up

************************************

Other versions of Dynamite

Dynamite (Ver. 2)Bass tabs

Almost there ...

Sign in to get your own page with links to favourite songs and more. You are just one click away...

Login with Facebook Login with Google