Log in

One click and you are in

Login with Facebook Login with Google

Why sign up and log in

Guitar Tabs Explorer
BTS bass tabs for Dynamite (Ver. 2)

Bass tabs with lyrics

Tuning: Standard (E A D G)


Verse 1:
G|------|--------------|----------------|-------------------------|-----------------|
D|------|--9h11p9------|----------9--x--|--9--9h11p9--------------|-----------------| x4
A|------|----------9\--|--7h9/11--------|-------------9h11p9--7\--|-------7---------|
E|--9\--|--------------|----------------|-------------------------|--7h9-----9--7\--|

Chorus:
You can do slap-pop patterns here
G|------------11--x--|-----------9--x--|
D|-----11------------|-----9-----------| x4
A|---------9---------|--------7--------|
E|--9----------------|--7--------------|


Verse 2:
G|------|--------------|----------------|-------------------------|-----------------|
D|------|--9h11p9------|----------9--x--|--9--9h11p9--------------|-----------------| x4
A|------|----------9\--|--7h9/11--------|-------------9h11p9--7\--|-------7---------|
E|--9\--|--------------|----------------|-------------------------|--7h9-----9--7\--|


Chorus:
You can do slap-pop patterns here
G|------------11--x--|-----------9--x--|
D|-----11------------|-----9-----------| x4
A|---------9---------|--------7--------|
E|--9----------------|--7--------------|


Bridge:
Starts at 2:14 (in reference to Spotify)
G|---------------------|--11p-----x---------|--------------------|--9p-----x----------|
D|------11p-----x------|--------------------|------9p-----x------|--------------------| x2
A|-----------------9s--|-------x-----9s--x--|----------------7s--|------x-----7s------|
E|--9s-------x---------|--------------------|--7s------x---------|----------------7s--|

G|--------------|   |-----------||
D|--------------| x3  |-----------||
A|-----9-----7--|   |-----9-----||
E|--9-----7-----|   |--9-----7--||



Chorus:
The last chorus as well as the outro may be played by following either the chorus or bridge pattern but with
two frets or semitones higher. So it becomes:
G|------------13--x--|------------11--x--|
D|-----13------------|-----11------------|
A|---------11--------|---------9---------|
E|--11---------------|--9----------------|

Again, you can perform the bridge pattern for the outro but remember to add 2 to each note (e.g. 9s+2 = 11s)


Tabbed by: James Exconde


************************************

| x  Dead note
| h  Hammer-on
| p  Pull-off
| /  Slide up
| \  Slide down
| s  Slap
| P  Pop

************************************

Other versions of Dynamite

DynamiteBass tabs

Almost there ...

Sign in to get your own page with links to favourite songs and more. You are just one click away...

Login with Facebook Login with Google