Log in

One click and you are in

Login with Facebook Login with Google

Why sign up and log in

Guitar Tabs Explorer
BTS bass tabs for Ddaeng

Bass tabs

Tuning: Drop D (D A D G)

Difficulty: Novice


Intro: (0:00)
G|-----------------------------1-4-|----------------------------2---|
D|-----7-------3-2-----0-1-2-2-----|----7-------3-2-----0-1---------|
A|---------------------------------|--------------------------------|
D|-7-------3-------0---------------|7-------3-------0-------2-------|
Chorus: (0:13)
G|---------------------------------|--------------------------------|
D|---------------------------------|--------------------------------|
A|---------------------------------|--------------------------------|
D|-7~------3~------0~------2~------|7~------3~------0~------2~------|


Verse: (0:27)
G|-----------------------------1-4-|--------------------------------|
D|-----7-------3-2-----0-1-2-2-----|----7-------3-2-----0-1---------|
A|---------------------------------|--------------------------------|
D|-7-------3-------0---------------|7-------3-------0-------2-------|

G|---------------------------------|--------------------------------|
D|-----7-------3-2-----0-1-2-------|----7-------3-2-----0-1-2-------|
A|---------------------------------|--------------------------------|
D|-7-------3-------0---------------|7-------3-------0---------------|

G|-----------------------------1-4-|--------------------------------|
D|-----7-------3-2-----0-1-2-2-----|----7-------3-2-----0-1-2-2-----|
A|---------------------------------|--------------------------------|
D|-7-------3-------0---------------|7-------3-------0---------------|


Chorus: (1:09)
G|---------------------------------|--------------------------------|
D|---------------------------------|--------------------------------|
A|---------------------------------|--------------------------------|
D|-7~------3~------0~------2~------|7~------3~------0~------2~------|

G|---------------------------------|--------------------------------|
D|---------------------------------|--------------------------------|
A|---------------------------------|--------------------------------|
D|-7~------3~------0~------2~------|7~------3~------0~------2~------|


Verse: (1:36)
G|-----------------------------1-4-|--------------------------------|
D|-----7-------3-2-----0-1-2-2-----|----7-------3-2-----0-1---------|
A|---------------------------------|--------------------------------|
D|-7-------3-------0---------------|7-------3-------0-------2-------|

G|---------------------------------|----------------------------1---|
D|-----7-------3-2-----0-1-2-------|----7-------3-2-----0-1-2-------|
A|---------------------------------|--------------------------------|
D|-7-------3-------0---------------|7-------3-------0---------------|

G|-----------------------------1-4-|--------------------------------|
D|-----7-------3-2-----0-1-2-2-----|----7-------3-2-----0-1-2-2-----|
A|---------------------------------|--------------------------------|
D|-7-------3-------0---------------|7-------3-------0---------------|


Chorus: (2:18)
G|---------------------------------|--------------------------------|
D|---------------------------------|--------------------------------|
A|---------------------------------|--------------------------------|
D|-7~------3~------0~------2~------|7~------3~------0~------2~------|

G|---------------------------------|--------------------------------|
D|---------------------------------|--------------------------------|
A|---------------------------------|--------------------------------|
D|-7~------3~------0~------2~------|7~------3~------0~------2~------|


Verse: (2:44)
G|---------------------------------|--------------------------------|
D|---------------------------------|--------------------------------|
A|---------3~----------------------|--------3~----------------------|
D|-7~--------------3~------2~------|7~--------------3~------2~------|

G|---------------------------------|--------------------------------|
D|---------------------------------|--------------------------------|
A|---------3~----------------------|--------3~----------------------|
D|-7~--------------3~------2~------|7~--------------3~------2~------|

G|-----------------------------1-4-|--------------------------------|
D|-----7-------3-2-----0-1-2-2-----|----7-------3-2-----0-1-2-------|
A|---------------------------------|--------------------------------|
D|-7-------3-------0---------------|7-------3-------0---------------|


Chorus: (3:25)
G|---------------------------------|--------------------------------|
D|---------------------------------|--------------------------------|
A|---------------------------------|--------------------------------|
D|-7~------3~------0~------2~------|7~------3~------0~------2~------|

G|---------------------------------|--------------------------------|
D|---------------------------------|--------------------------------|
A|---------------------------------|--------------------------------|
D|-7~------3~------0~------2~------|7~------3~------0~------2~------|


***********************************

| ~ Vibrato

***********************************

Almost there ...

Sign in to get your own page with links to favourite songs and more. You are just one click away...

Login with Facebook Login with Google