Search tabs and chords

Search for song, artist or band

Log in

One click and you are in

Login with Facebook Login with Google

Why sign up and log in

Guitar Tabs Explorer
BTS guitar tabs for Butterfly acoustic

Guitar tabs with lyrics

  • Capo on 3rd
Tuning: Standard (E A D G B E)

Difficulty: Intermediate

This is my first tab so pls be nice.
Verse:

e|----0-------0-----|----0-------0-----|
B|--0---0---0---0---|--0---0---0---0---|
G|-2-2-2-2-2-2-2-2 -|-2-2-2-2-2-2-2-2--|
D|2-------2---------|------------------|
A|------------------|0-------0---------|
E|------------------|------------------|

e|----0-------0----|----0-------0-----|
B|--0---0---0---0--|------------------|
G|-----------------|--2---2---2---2---|
D|-2-2-2-2-2-2-2-2-|-2-2-2-2-2-2-2-2--|
A|3-------3--------|------------------|
E|-----------------|2-------2---------|

Amugeosdo saenggakhaji ma
Neon amu maldo kkeonaejido ma
Geunyang naege useojwo

Nan ajikdo mitgijiga anha
I modeun ge da kkumin geot gata
Sarajiryeo hajima


Pre-Chorus:

e|-0-0-0-0-|-0-0-0-0-|-0-0-0-0-|-0-0-0-0-|
B|-1-1-1-1-|-2-2-2-2-|-0-0-0-0-|-0-0-0-0-|
G|-0-0-0-0-|-2-2-2-2-|-9-9-9-9-|-2-2-2-2-|
D|-3-3-3-3-|-2-2-2-2-|-9-9-9-9-|-2-2-2-2-|
A|-0-0-0-0-|-0-0-0-0-|-0-0-0-0-|-0-0-0-0-|
E|-x-x-x-x-|-x-x-x-x-|-9-9-9-9-|-2-2-2-2-|

It it true? It it true?
You, you
Neomu areumdawo duryeowo

Untrue, untrue
You, you, you

refrain:

e|-0-0-0-0-|-0-0-0-0-|-0-0-0-0-|-0-0-0-0-|
B|-1-1-1-1-|-2-2-2-2-|-0-0-0-0-|-0-0-0-0-|
G|-0-0-0-0-|-2-2-2-2-|-9-9-9-9-|-2-2-2-2-|
D|-3-3-3-3-|-2-2-2-2-|-9-9-9-9-|-2-2-2-2-|
A|-0-0-0-0-|-0-0-0-0-|-0-0-0-0-|-0-0-0-0-|
E|-x-x-x-x-|-x-x-x-x-|-9-9-9-9-|-2-2-2-2-|

Gyeote meomulleojullae
Naege yaksokhaejullae
Son daemyeon naragalkka buseojilkka
Geopna geopna geopna

Siganeul meomchullae
I sungani jinamyeon
Eopseossdeon iri doelkka neol ilheulkka
Geopna geopna geopna

Chorus:


e|-0-0-0-0-|-0-0-0-0-|-0-0-0-0-|-0-0-0-0-|
B|-1-1-1-1-|-1-1-1-1-|-0-0-0-0-|-0-0-0-0-|
G|-0-0-0-0-|-0-0-0-0-|-2-2-2-2-|-2-2-2-2-|
D|-3-3-3-3-|-2-2-2-2-|-2-2-2-2-|-2-2-2-2-|
A|-0-0-0-0-|-3-3-3-3-|-0-0-0-0-|-0-0-0-0-|
E|-x-x-x-x-|-x-x-x-x-|-2-2-2-2-|-2-2-2-2-|


Butterfly, like a butterfly
Machi butterfly, bu-butterfly cheoreom
Butterfly, like a butterfly
Machi butterfly, bu-butterfly cheoreom


Verse:

e|----0-------0-----|----0-------0-----|
B|--0---0---0---0---|--0---0---0---0---|
G|-2-2-2-2-2-2-2-2 -|-2-2-2-2-2-2-2-2--|
D|2-------2---------|------------------|
A|------------------|0-------0---------|
E|------------------|------------------|

e|----0-------0----|----0-------0-----|
B|--0---0---0---0--|------------------|
G|-----------------|--2---2---2---2---|
D|-2-2-2-2-2-2-2-2-|-2-2-2-2-2-2-2-2--|
A|3-------3--------|------------------|
E|-----------------|2-------2---------|

neon machi Butterfly
meolliseo humchyeobwa son daheumyeon neol irheulkka
i chilheuk gateun eodum sok nal barkhineun nabihyogwa
ni jageun sonjit han beone hyeonsireul ijeo nan

salmyeosi sseudadeumneun baram gata
salposi pyoryuhaneun meonji gata
neon geogi itjiman waenji dahji anha Stop
kkum gateun neon naege butterfly, high



Pre-Chorus:

e|-0-0-0-0-|-0-0-0-0-|-0-0-0-0-|-0-0-0-0-|
B|-1-1-1-1-|-2-2-2-2-|-0-0-0-0-|-0-0-0-0-|
G|-0-0-0-0-|-2-2-2-2-|-9-9-9-9-|-2-2-2-2-|
D|-3-3-3-3-|-2-2-2-2-|-9-9-9-9-|-2-2-2-2-|
A|-0-0-0-0-|-0-0-0-0-|-0-0-0-0-|-0-0-0-0-|
E|-x-x-x-x-|-x-x-x-x-|-9-9-9-9-|-2-2-2-2-|

Untrue Untrue
You You You


refrain:

e|-0-0-0-0-|-0-0-0-0-|-0-0-0-0-|-0-0-0-0-|
B|-1-1-1-1-|-2-2-2-2-|-0-0-0-0-|-0-0-0-0-|
G|-0-0-0-0-|-2-2-2-2-|-9-9-9-9-|-2-2-2-2-|
D|-3-3-3-3-|-2-2-2-2-|-9-9-9-9-|-2-2-2-2-|
A|-0-0-0-0-|-0-0-0-0-|-0-0-0-0-|-0-0-0-0-|
E|-x-x-x-x-|-x-x-x-x-|-9-9-9-9-|-2-2-2-2-|

Gyeote meomulleojullae
Naege yaksokhaejullae
Son daemyeon naragalkka buseojilkka
Geopna geopna geopna


Siganeul meomchullae
I sungani jinamyeon
Eopseossdeon iri doelkka neol ilheulkka
Geopna geopna geopna


Bridge:

e|-0-0-|-0-0-|-0-0-|-0-0-|0-0-0-0-|-0-0-0-0-|-0-0-0-0-|-0-0-0-0-|
B|-1-1-|-1-1-|-2-2-|-0-0-|1-1-1-1-|-1-1-1-1-|-2-2-2-2-|-0-0-0-0-|
G|-0-0-|-0-0-|-2-2-|-2-2-|0-0-0-0-|-0-0-0-0-|-2-2-2-2-|-2-2-2-2-|
D|-3-3-|-2-2-|-2-2-|-2-2-|3-3-3-3-|-2-2-2-2-|-2-2-2-2-|-2-2-2-2-|
A|-0-0-|-3-3-|-0-0-|-0-0-|0-0-0-0-|-3-3-3-3-|-0-0-0-0-|-0-0-0-0-|
E|-x-x-|-x-x-|-x-x-|-2-2-|x-x-x-x-|-x-x-x-x-|-x-x-x-x-|-2-2-2-2-|


simjangeun memareun sorireul nae
kkuminji hyeonsirinji al su eobtne
naui haebyeonui kapeukayeo
jeogi supeuro gajin marajwo
nae maeumeun ajik neo wie buseojyeo
jogakjogak kkamake noga heulleo
(nan geunyang idaero jeungbalhago sipeo)
nae sarangeun yeongwonin geol
It’s all FREE for you baby


refrain:

e|-0-0-0-0-|-0-0-0-0-|-0-0-0-0-|-0-0-0-0-|
B|-1-1-1-1-|-2-2-2-2-|-0-0-0-0-|-0-0-0-0-|
G|-0-0-0-0-|-2-2-2-2-|-9-9-9-9-|-2-2-2-2-|
D|-3-3-3-3-|-2-2-2-2-|-9-9-9-9-|-2-2-2-2-|
A|-0-0-0-0-|-0-0-0-0-|-0-0-0-0-|-0-0-0-0-|
E|-x-x-x-x-|-x-x-x-x-|-9-9-9-9-|-2-2-2-2-|

Gyeote meomulleojullae
Naege yaksokhaejullae
Son daemyeon naragalkka buseojilkka
Geopna geopna geopna


Siganeul meomchullae
I sungani jinamyeon
Eopseossdeon iri doelkka neol ilheulkka
Geopna geopna geopna


Chorus:


e|-0-0-0-0-|-0-0-0-0-|-0-0-0-0-|-0-0-0-0-|
B|-1-1-1-1-|-1-1-1-1-|-0-0-0-0-|-0-0-0-0-|
G|-0-0-0-0-|-0-0-0-0-|-2-2-2-2-|-2-2-2-2-|
D|-3-3-3-3-|-2-2-2-2-|-2-2-2-2-|-2-2-2-2-|
A|-0-0-0-0-|-3-3-3-3-|-0-0-0-0-|-0-0-0-0-|
E|-x-x-x-x-|-x-x-x-x-|-2-2-2-2-|-2-2-2-2-|

Butterfly, like a butterfly
Machi butterfly, bu-butterfly cheoreom
Butterfly, like a butterfly
Machi butterfly, bu-butterfly cheoreom





************************************

| x   Dead note

************************************

Other versions of Butterfly Acoustic

ButterflyChords
Butterfly - acousticTabs

Almost there ...

Sign in to get your own page with links to favourite songs and more. You are just one click away...

Login with Facebook Login with Google