Log in

One click and you are in

Login with Facebook Login with Google

Why sign up and log in

Guitar Tabs Explorer
BTS guitar tabs for Butterfly - acoustic

Guitar tabs

  • Capo on 3rd
butterfly - acoustic
As sung by Jimin and played by jin

-------------0-------------|
-------0-----------0-------|
----2-----2-----2-----2----|
-2-------------------------|     x2
---------------------------|
---------------------------|
-------------0------------|
-------0-----------0------|
----2-----2-----2-----2---|
--------------------------|     x2
-0------------------------|
--------------------------|


-------------0------------|
-------0-----------0------|
--------------------------|
----2-----2-----2-----2---|     x2
--4-----------------------|
--------------------------|


-------------0------------|
--------------------------|
-------2-----------2------|
----2-----2-----2-----2---|     x2
--------------------------|
-2------------------------|

repeat until:

is it true......


----0--0--0--0---------|
----2--2--2--2---------|
----3--3--3--3---------|
----0--0--0--0---------|
-----------------------|
-----------------------|


----0--0--0--0---------|
----2--2--2--2---------|
----2--2--2--2---------|
----2--2--2--2---------|
----0--0--0--0---------|
----0--0--0--0---------|


----0--0--0--0---------|
----0--0--0--0---------|
----9--9--9--9---------|
----9--9--9--9---------|
----0--0--0--0---------|
----9--9--9--9---------|


----0--0--0--0---------|
----0--0--0--0---------|
----2--2--2--2---------|
----2--2--2--2---------|
----0--0--0--0---------|
----2--2--2--2---------|


repeat until:

like a butterfly...

----0--0--0--0---------|
----2--2--2--2---------|
----3--3--3--3---------|
----0--0--0--0---------|
-----------------------|
-----------------------|


----0--0--0--0---------|
----1--1--1--1---------|
----0--0--0--0---------|
----2--2--2--2---------|
----3--3--3--3---------|
-----------------------|

----0--0--0--0---------|
----0--0--0--0---------|
----2--2--2--2---------|
----2--2--2--2---------|
----0--0--0--0---------|
----2--2--2--2---------|



----0--0--0--0---------|
----0--0--0--0---------|
----2--2--2--2---------|
----2--2--2--2---------|
----0--0--0--0---------|
----0--0--0--0---------|


and so on and so forth

Almost there ...

Sign in to get your own page with links to favourite songs and more. You are just one click away...

Login with Facebook Login with Google