Log in

One click and you are in

Login with Facebook Login with Google

Why sign up and log in

Guitar Tabs Explorer
BTS bass tabs for Butter

Bass tabs

  • Difficulty: Beginner
Tuning: Standard (E A D G)

♫ Verse 1: (Start at 0:19 from YT music video)

G|---------------------------------------|
D|---------------------------------------|
A|---------------------------------------|
E|-4-4-4s--444-44-4s--4-4-4s--444-44-4s--|

Pre-chorus (Oh, when I look in the mirror)
G|-------------------------------------|
D|-------------------------------------|
A|-4--4-4-6-6-8-8-4--4-4-6-6~----------|
E|-------------------------------------|


♫ Chorus:

G|-------------------------------------------------------------|
D|-------------------------------------------------------------|
A|-4-4-4-4-6-6-11-11-4-4-4-4-6-6-8-8-4-4-4-4-6-6-8-8-4-4-4-4-6~|
E|-------------------------------------------------------------|


♫ Verse 2:

G|--------------------------------|
D|--------------------------------|
A|--------------------------------|
E|-4-4-4s--444-44-4s--4-4-4s-4~---|

G|---------------------------------------|
D|---------------------------------------|
A|---------------------------------------|
E|-4-4-4s--444-44-4s--4-4-4s--444-44-4s--|

Pre Chorus

G|-------------------------------------|
D|-------------------------------------|
A|-4--4-4-6-6-8-8-4-4-4-4-6-6~---------|
E|-------------------------------------|


♫ Chorus:
G|-------------------------------------------------------------|
D|-------------------------------------------------------------|
A|-4-4-4-4-6-6-11-11-4-4-4-4-6-6-8-8-4-4-4-4-6-6-8-8-4-4-4-4-6~|
E|-------------------------------------------------------------|


♫ Bridge:

G|-------------------------------------------------------------|
D|-------------------------------------------------------------|
A|-4-4-4-4-6-6-11-11-4-4-4-4-6-6-8-8-4-4-4-4-6-6-8-8-4-4-4-4-6~|
E|-------------------------------------------------------------|


SUGA/RM ♫ Verse:


G|---------------------------------------------------------------|
D|---------------------------------------------------------------|
A|-44--44--66--88--44-44--66--88--44--44--6--8--44---------------|
E|---------------------------------------------------------------|


♫ Chorus:
G|-------------------------------------------------------------|
D|-------------------------------------------------------------|
A|-4-4-4-4-6-6-11-11-4-4-4-4-6-6-8-8-4-4-4-4-6-6-8-8-4-4-4-4-6~|
E|-------------------------------------------------------------|


JHOPE/RM ♫ Outro:

G|---------------------------------------------------------------|
D|---------------------------------------------------------------|
A|-4-4-4-4-6-6-8-8-4-4-4-4-6-6-8-8-4-4-4-4-6-6-8-8-4-4-4-4-6-----|
E|---------------------------------------------------------------|



************************************


| ~  Vibrato
| s  Slap


************************************

Almost there ...

Sign in to get your own page with links to favourite songs and more. You are just one click away...

Login with Facebook Login with Google