Log in

One click and you are in

Login with Facebook Login with Google

Why sign up and log in

Guitar Tabs Explorer
BTS bass tabs for Boy with luv

Bass tabs

Tuning: Standard (E A D G)

There are two main riffs to learn for this song, the tab below shows where to use them,
but feel free to experiment.
Intro:

0:00
G|------------------------------------------|------------------------------------------|
D|------------------------------------------|------------------------------------------|
A|---------------------2---2----------------|-0---0------------------0---0-------------|
E|-3---3------------------------------------|-----------------------------------2---2--|

0:08
G|------------------------------------------|------------------------------------------|
D|------------------------------------------|------------------------------------------|
A|---------------------2---2----------------|-0---0------------------0---0-------------|
E|-3---3------------------------------------|-----------------------------------2---2--|


Verse:

0:15
G|------------------------------------------|------------------------------------------|
D|----------------------------------4-------|------------------------------------------|
A|---------------------2--2--2---2-----2----|-0--0--0---0---0-0--0--0---0--------------|
E|-3--3--3---3-----3------------------------|-------------------------------2--2--2--2-|

0:23
G|------------------------------------------|------------------------------------------|
D|----------------------------------4-------|------------------------------------------|
A|---------------------2--2--2---2-----2----|-0--0--0---0---0-0--0--0---0--------------|
E|-3--3--3---3-----3------------------------|-------------------------------2--2--2--2-|

0:31
G|------------------------------------------|------------------------------------------|
D|----------------------------------4-------|------------------------------------------|
A|---------------------2--2--2---2-----2----|-0--0--0---0---0-0--0--0---0--------------|
E|-3--3--3---3-----3------------------------|-------------------------------2--2--2--2-|

0:40
G|------------------------------------------|------------------------------------------|
D|----------------------------------4-------|------------------------------------------|
A|---------------------2--2--2---2-----2----|-0--0--0---0---0-0--0--0---0--------------|
E|-3--3--3---3-----3------------------------|-------------------------------2--2--2--2-|


Pre-Chorus:

0:48
G|------------------------------------------|------------------------------------------|
D|------------------------------------------|------------------------------------------|
A|---------------------2---2----------------|-0---0------------------0---0-------------|
E|-3---3------------------------------------|-----------------------------------2---2--|

0:56
G|------------------------------------------|------------------------------------------|
D|------------------------------------------|------------------------------------------|
A|---------------------2---2----------------|-0---0------------------0---0-------------|
E|-3---3------------------------------------|-----------------------------------2---2--|


Chorus:

1:04
G|------------------------------------------|------------------------------------------|
D|----------------------------------4-------|------------------------------------------|
A|---------------------2--2--2---2-----2----|-0--0--0---0---0-0--0--0---0--------------|
E|-3--3--3---3-----3------------------------|-------------------------------2--2--2--2-|

1:11
G|------------------------------------------|------------------------------------------|
D|----------------------------------4-------|------------------------------------------|
A|---------------------2--2--2---2-----2----|-0--0--0---0---0-0--0--0---0--------------|
E|-3--3--3---3-----3------------------------|-------------------------------2--2--2--2-|


Post-Chorus:

1:20
G|------------------------------------------|------------------------------------------|
D|----------------------------------4-------|------------------------------------------|
A|---------------------2--2--2---2-----2----|-0--0--0---0---0-0--0--0---0--------------|
E|-3--3--3---3-----3------------------------|-------------------------------2--2--2--2-|

1:27
G|------------------------------------------|------------------------------------------|
D|----------------------------------4-------|------------------------------------------|
A|---------------------2--2--2---2-----2----|-0--0--0---0---0-0--0--0---0--------------|
E|-3--3--3---3-----3------------------------|-------------------------------2--2--2--2-|


Verse: (No notes for 2 bars)

1:51
G|------------------------------------------|------------------------------------------|
D|----------------------------------4-------|------------------------------------------|
A|---------------------2--2--2---2-----2----|-0--0--0---0---0-0--0--0---0--------------|
E|-3--3--3---3-----3------------------------|-------------------------------2--2--2--2-|

1:59
G|------------------------------------------|------------------------------------------|
D|----------------------------------4-------|------------------------------------------|
A|---------------------2--2--2---2-----2----|-0--0--0---0---0-0--0--0---0--------------|
E|-3--3--3---3-----3------------------------|-------------------------------2--2--2--2-|


Pre-Chorus:

2:08
G|------------------------------------------|------------------------------------------|
D|------------------------------------------|------------------------------------------|
A|---------------------2---2----------------|-0---0------------------0---0-------------|
E|-3---3------------------------------------|-----------------------------------2---2--|

2:15
G|------------------------------------------|------------------------------------------|
D|------------------------------------------|------------------------------------------|
A|---------------------2---2----------------|-0---0------------------0---0-------------|
E|-3---3------------------------------------|-----------------------------------2---2--|

2:23
G|------------------------------------------|------------------------------------------|
D|----------------------------------4-------|------------------------------------------|
A|---------------------2--2--2---2-----2----|-0--0--0---0---0-0--0--0---0--------------|
E|-3--3--3---3-----3------------------------|-------------------------------2--2--2--2-|

2:32
G|------------------------------------------|------------------------------------------|
D|----------------------------------4-------|------------------------------------------|
A|---------------------2--2--2---2-----2----|-0--0--0---0---0-0--0--0---0--------------|
E|-3--3--3---3-----3------------------------|-------------------------------2--2--2--2-|


Post-Chorus:

2:40
G|------------------------------------------|------------------------------------------|
D|----------------------------------4-------|------------------------------------------|
A|---------------------2--2--2---2-----2----|-0--0--0---0---0-0--0--0---0--------------|
E|-3--3--3---3-----3------------------------|-------------------------------2--2--2--2-|

2:48
G|------------------------------------------|------------------------------------------|
D|----------------------------------4-------|------------------------------------------|
A|---------------------2--2--2---2-----2----|-0--0--0---0---0-0--0--0---0--------------|
E|-3--3--3---3-----3------------------------|-------------------------------2--2--2--2-|


Bridge:

2:55
G|------------------------------------------|------------------------------------------|
D|----------------------------------4-------|------------------------------------------|
A|---------------------2--2--2---2-----2----|-0--0--0---0---0-0--0--0---0--------------|
E|-3--3--3---3-----3------------------------|-------------------------------2--2--2--2-|

3:03
G|------------------------------------------|------------------------------------------|
D|----------------------------------4-------|------------------------------------------|
A|---------------------2--2--2---2-----2----|-0--0--0---0---0-0--0--0---0--------------|
E|-3--3--3---3-----3------------------------|-------------------------------2--2--2--2-|


Chorus/Outro:

3:12
G|------------------------------------------|------------------------------------------|
D|----------------------------------4-------|------------------------------------------|
A|---------------------2--2--2---2-----2----|-0--0--0---0---0-0--0--0---0--------------|
E|-3--3--3---3-----3------------------------|-------------------------------2--2--2--2-|

3:20
G|------------------------------------------|------------------------------------------|
D|----------------------------------4-------|------------------------------------------|
A|---------------------2--2--2---2-----2----|-0--0--0---0---0-0--0--0---0--------------|
E|-3--3--3---3-----3------------------------|-------------------------------2--2--2--2-|

3:28
G|------------------------------------------|------------------------------------------|
D|----------------------------------4-------|------------------------------------------|
A|---------------------2--2--2---2-----2----|-0--0--0---0---0-0--0--0---0--------------|
E|-3--3--3---3-----3------------------------|-------------------------------2--2--2--2-|

3:36
G|------------------------------------------|------------------------------------------|
D|----------------------------------4-------|------------------------------------------|
A|---------------------2--2--2---2-----2----|-0--0--0---0---0-0--0--0---0--------------|
E|-3--3--3---3-----3------------------------|-------------------------------2--2--2--2-|

Almost there ...

Sign in to get your own page with links to favourite songs and more. You are just one click away...

Login with Facebook Login with Google