Log in

One click and you are in

Login with Facebook Login with Google

Why sign up and log in

Guitar Tabs Explorer
BTS bass tabs for 134340

Bass tabs

Tuning: Standard (E A D G)


Intro: 00:00-00:07
   1 + 2 + 3 + 4 + 1 + 2 + 3 + 4 + 1 + 2 + 3 + 4 + 1 + 2 + 3 + 4 +
G|-----------------|---------------|---------------|------------------|
D|-----------------|---------------|---------------|------------------|
A|-----------------|---------------|---------------|----------------\2|
E|-----------------|---------------|---------------|------------------|

Verse 1: V & Jungkook
00:09
  1 + 2 + 3 + 4 + 1 + 2 + 3 + 4 + 1 + 2 + 3 + 4 +  1 + 2 + 3 + 4 +
G|-----------------|----------------|-----------------|-----------------|
D|-----------------|----------------|--------------3/4|--------------3/4|
A|-2-----2-2-----3-|4-----4-4---3---|2-----2-2--------|2-----2-2--------| x 2
E|-----------------|----------------|-----------------|-----------------|


Verse 2: RM
00:27
  1 + 2 + 3 + 4 + 1 + 2 + 3 + 4 + 1 + 2 + 3 + 4 +  1 + 2 + 3 + 4 +
G|----------------|----------------|-----------------|-----------------|
D|----------------|----------------|--------------3/4|--------------3/4|
A|-2-----2-2-----3|4-----4-4---3---|2-----2-2--------|2-----2-2--------| x 4
E|----------------|----------------|-----------------|-----------------|


Pre-Chorus: Jimin & Jin
01:03
  1 + 2 + 3 + 4 + 1 + 2 + 3 + 4 + 1 + 2 + 3 + 4 + 1 + 2 + 3 + 4 +
G|-----------------|---------------|------4/6-4----|-------4/6-4-----|
D|-----------------|---------------|--------------4|---------------4-|
A|-2-----2-2-----3-|4-----4-4---3--|2--------------|2----------------| x 2
E|-----------------|---------------|---------------|-----------------|


Chorus: Jungkook & V
01:21
  1 + 2 + 3 + 4 + 1 + 2 + 3 + 4 + 1 + 2 + 3 + 4 + 1 + 2 + 3 + 4 +
G|-----------------|---------------|------4/6-4----|-------4/6-4-----|
D|-----------------|---------------|--------------4|---------------4-|
A|-2-----2-2-----3-|4-----4-4---3--|2--------------|2----------------| x 2
E|-----------------|---------------|---------------|-----------------|


Verse 3: Suga
01:39
  1 + 2 + 3 + 4 + 1 + 2 + 3 + 4 + 1 + 2 + 3 + 4 +  1 + 2 + 3 + 4 +
G|----------------|----------------|-----------------|-----------------|
D|----------------|----------------|--------------3/4|--------------3/4|
A|-2-----2-2-----3|4-----4-4---3---|2-----2-2--------|2-----2-2--------| x 2
E|----------------|----------------|-----------------|-----------------|

01:57
  1 + 2 + 3 + 4 + 1 + 2 + 3 + 4 + 1 + 2 + 3 + 4 +  1 + 2 + 3 + 4 +
G|---------4-6---5|6-----5---------|-----------------|-----------------|
D|-------4--------|----------------|--------------3/4|--------------3/4|
A|-2--------------|--------4---3---|2-----2-2--------|2-----2-2--------| x 2
E|----------------|----------------|-----------------|-----------------|


Pre-Chorus: Jin & Jungkook
02:16
  1 + 2 + 3 + 4 + 1 + 2 + 3 + 4 + 1 + 2 + 3 + 4 + 1 + 2 + 3 + 4 +
G|-----------------|---------------|------4/6-4----|-------4/6-4-----|
D|-----------------|---------------|--------------4|---------------4-|
A|-2-----2-2-----3-|4-----4-4---3--|2--------------|2----------------| x 2
E|-----------------|---------------|---------------|-----------------|


Chorus: Jungkook & Jimin
02:34
  1 + 2 + 3 + 4 + 1 + 2 + 3 + 4 + 1 + 2 + 3 + 4 + 1 + 2 + 3 + 4 +
G|-----------------|---------------|------4/6-4----|-------4/6-4-----|
D|-----------------|---------------|--------------4|---------------4-|
A|-2-----2-2-----3-|4-----4-4---3--|2--------------|2----------------| x 2
E|-----------------|---------------|---------------|-----------------|


Bridge: Jin & JHope
02:52
 1 + 2 + 3 + 4 + 1 + 2 + 3 + 4 + 1 + 2 + 3 + 4 + 1 + 2 + 3 + 4 +
G|---------------|----------------|---------------|------------------|
D|---------------|----------------|---------------|------------------|
A|---------------|----------------|---------------|------------------| x 2
E|---------------|----------------|---------------|------------------|


Pre-Chorus: V & Jungkook
3:10
  1 + 2 + 3 + 4 + 1 + 2 + 3 + 4 + 1 + 2 + 3 + 4 + 1 + 2 + 3 + 4 +
G|-----------------|---------------|------4/6-4----|-------4/6-4-----|
D|-----------------|---------------|--------------4|---------------4-|
A|-2-----2-2-----3-|4-----4-4---3--|2--------------|2----------------| x 2
E|-----------------|---------------|---------------|-----------------|


Chorus: Jungkook & Jimin
03:29
  1 + 2 + 3 + 4 + 1 + 2 + 3 + 4 + 1 + 2 + 3 + 4 + 1 + 2 + 3 + 4 +
G|-----------------|---------------|------4/6-4----|-------4/6-4-----|
D|-----------------|---------------|--------------4|---------------4-|
A|-2-----2-2-----3-|4-----4-4---3--|2--------------|2----------------| x 2
E|-----------------|---------------|---------------|-----------------|

************************************

| /  Slide up
| \  Slide Down

************************************
방탄소년단의 134340 가사

Almost there ...

Sign in to get your own page with links to favourite songs and more. You are just one click away...

Login with Facebook Login with Google