Log in

One click and you are in

Login with Facebook Login with Google

Why sign up and log in

Guitar Tabs Explorer
Bryan And Katie Torwalt guitar tabs for Holy spirit

Guitar tabs with lyrics

-------------------------------------------------------------------------------
                             holy spirt - Bryan Towalt
-------------------------------------------------------------------------------
Tabbed by:
E-mail:
key of A chord diagramD MajorD

Tuning:E-A-D-G-B-e
e|---------------------------------------------------------------------------|
B|---------------------------------------------------------------------------|
G|---------------------------------------------------------------------------|
D|----0-----0---2----4----4----0------0--0-2----4----4---0----0----2----4--4-|
A|----2-----2---4----5----5----2------2--2-4----5----5---2----2----4----5--5-|
E|---------------------------------------------------------------------------|
   there's nothing worth more that could ever come close no thing can compare
e|---------------------------------------------------------------------------|
B|---------------------------------------------------------------------------|
G|--------------------------------0------------------------------------------|
D|----0-----0----2--4--0-----4----0---4----0---------------------------------|
A|----2-----2----4--5--2-----5--------5----0---------------------------------|
E|---------------------------------------------------------------------------|
    You're are living hope your presence Lord
e|---------------------------------------------------------------------------|
B|---------------------------------------------------------------------------|
G|---------------------------------------------------------------------------|
D|--0------0-2--4----4---0---0---0--2----4----4-----0---0---0----2---4----4--|
A|--2------2-4--5----5---2---2---2--4----5----5------------------------------|
E|--------------------------------------------------2---2---2----3---3----3--|
   i've tasted and seen  of the sweetest of loves when my heart becomes free
e|---------------------------------------------------------------------------|
B|---------------------------------------------------------------------------|
G|-----------------------------0---------------------------------------------|
D|--0--0----0---2-2--2-2-0-4---0--4------0-----------------------------------|
A|----------------0--0-4-2-4------5------0-----------------------------------|
E|--2--2----2---3------------------------------------------------------------|
   and my shame is undone your presence Lord
e|---------------------------------------------------------------------------|
B|---------------------------------------------------------------------------|
G|---------------------------------------------------------------------------|
D|------4-4---4--2---0---4-----4-2---------4----4-----4----4----2---0----4---|
A|------5-5---5------0---5-----5------0----5----5-----5----5--------0----5---|
E|------5-5---5--3---2---5-----5-3----2----5----5-----5----5----3---2----5---|

chorus: holy spirit You are welcome here come flood this place and fill the
e|---------------------------------------------------------------------------|
B|---------------------------------------------------------------------------|
G|---------------------------------------------------------------------------|
D|--4--2--------4--4---4--4--2----0---4---4------2-------0--4--4-4-4----0----|
A|--5------0----5--5---5--5-------0---5---5-----------0--0--5--5-5-5----0----|
E|--5--3---2----5--5---5--5--3----2---5---5------3----2--2--5--5-5-5----2----|
   atmosphere your glory God is what our hearts long for to be overcome by
e|---------------------------------------------------------------------------|
B|---------------------------------------------------------------------------|
G|---------------0-----------------------------------------------------------|
D|--4----4--2----0--4--------------------------------------------------------|
A|--5----5----------5--------------------------------------------------------|
E|--5----5--3----------------------------------------------------------------|
   your presence Lord
e|---------------------------------------------------------------------------|
B|---------------------------------------------------------------------------|
G|---------------------------------------------------------------------------|
D|--4--4---4--4----0---4-4--0---4---4--2--0---4--4---4-4-4-2-0--4--4--2---0--|
A|--5--5---5--5----0---5-5--0---5---5-----0---5--5---5-5-5---0--5--5------0--|
E|--5--5---5--5----2---5-5--2---5---5--3--2---5--5---5-5-5-3-2--5--5--3---2--|
   let us become more aware of your presence let us experience the glory of
e|---------------------------------------------------------------------------|
B|---------------------------------------------------------------------------|
G|---------------------------------------------------------------------------|
D|--4----4-2-0---------------------------------------------------------------|
A|--5----5---0---------------------------------------------------------------|
E|--5----5-3-2---------------------------------------------------------------|
   your goodness
************************************

| /   slide up
| \   slide down
| h   hammer-on
| p   pull-off
| ~   vibrato
| +   harmonic
| x   Mute note
| b   Bend
| pb  Pre-bend
| br  Bend release
| pbr Pre-bend release
| brb Bend release bend

************************************

Almost there ...

Sign in to get your own page with links to favourite songs and more. You are just one click away...

Login with Facebook Login with Google