Log in

One click and you are in

Login with Facebook Login with Google

Why sign up and log in

Guitar Tabs Explorer
Bryan And Katie Torwalt guitar tabs for He is faithful

He Is Faithful tab by Bryan And Katie Torwalt

Bryan And Katie Torwalt guitar tabs for He is faithful

Guitar tabs with lyrics

-------------------------------------------------------------------------------
                             He is Faithful - Bryan & Katie Torwalt
-------------------------------------------------------------------------------
Tabbed by: Chuckeh
E-mail:camposchuckie@yahoo.com
Tuning: Standard


Intro:
e|----------------------5--8-7-----------------------------------------------|
B|-----------8------8-----------8--------------------------------------------|
G|-----------7---------------------------------------------------------------|
D|-----------5---------------------------------------------------------------|.   x2
A|---------------------------------------------------------------------------|
E|---------------------------------------------------------------------------|
Halfway through verse
e|-----------7---------------3-----------------12-------------------3--------|
B|----------/7--------------/5----------------/12------------------/5--------|
G|---------------------------------------------------------------------------|
D|---------------------------------------------------------------------------|
A|---------------------------------------------------------------------------|
E|---------------------------------------------------------------------------|

Pre chorus
e|----------14---------12---------12------------------------15---------------|
B|----------15---------12---------13-----------------------------------------|
G|----------14---------12---------12---------------14h-16--------------------|
D|---------------------------------------------------------------------------|
A|---------------------------------------------------------------------------|play twice but
E|---------------------------------------------------------------------------|leave out last
                                                                              Part 2nd time

 Chorus
e|---15-15-15-15-15-15-15-15-15-15-15-15-------------------------------------|
B|---------------------------------------15-15--15-15-17-17-17-17-17-17-17-17|
G|---------------------------------------------------------------------------|
D|---------------------------------------------------------------------------|
A|---------------------------------------------------------------------------|
E|---------------------------------------------------------------------------|

e|---------------------------------------------------------------------------|
B|----13-13-13-13-12-12-12-12------------------------------------------------|
G|---------------------------------------------------------------------------|
D|---------------------------------------------------------------------------|
A|---------------------------------------------------------------------------|
E|---------------------------------------------------------------------------|

e|---15-15-15-15-15-15-15-15-15-15-15-15-------------------------------------|
B|---------------------------------------15-15-15-15-17-17-17-17-17-17-------|
G|---------------------------------------------------------------------------|
D|---------------------------------------------------------------------------|
A|---------------------------------------------------------------------------|
E|---------------------------------------------------------------------------|

e|---------------------------------------------------------------------------|
B|---19-19-19-19-20-20-20-20-20-20-20-20-20-20-20----------------------------|
G|---------------------------------------------------------------------------|
D|---------------------------------------------------------------------------|
A|---------------------------------------------------------------------------|
E|---------------------------------------------------------------------------|

The bridge has 2 guitar leads going on

Guitar I
e|---------------------------------------------------------------------------|
B|---------------------------------------------------------------------------|
G|---------------------------------------------------------------------------|
D|---14-14-14-12-14-14-14-12----------12---------16br------------------------|
A|---------------------------14-14-14----12-12-------------------------------|   x2
E|---------------------------------------------------------------------------|

e|-----------------------------------------------14br------------------------|
B|---17-17-17-15-17-17-17-15-----------15------------------------------------|
G|----------------------------16-16-16----14-14------------------------------|
D|---------------------------------------------------------------------------|
A|---------------------------------------------------------------------------|   x2
E|---------------------------------------------------------------------------|

e|----19-15----15----20-15----15----19-15----15----17-14------14-------------|
B|----------17-------------17-------------15--------------15-----------------|
G|---------------------------------------------------------------------------|
D|---------------------------------------------------------------------------|
A|---------------------------------------------------------------------------|   x2
E|---------------------------------------------------------------------------|

This is basically the whole song.. This is my
First tab and I did it not even tab it next to a guitar so if I'm wrong I apologize. Thanks guys


************************************

| /   slide up
| \   slide down
| h   hammer-on
| p   pull-off
| ~   vibrato
| +   harmonic
| x   Mute note
| b   Bend
| pb  Pre-bend
| br  Bend release
| pbr Pre-bend release
| brb Bend release bend

************************************

Almost there ...

Sign in to get your own page with links to favourite songs and more. You are just one click away...

Login with Facebook Login with Google