Search tabs and chords

Search for song, artist or band

Log in

One click and you are in

Login with Facebook Login with Google

Why sign up and log in

Guitar Tabs Explorer
Bruno Major guitar tabs for The first thing you see

Guitar tabs with lyrics

Tuning: Drop A chord diagramD MajorD (A chord diagramD MajorD A chord diagramA majorA A chord diagramD MajorD A chord diagramG MajorG A chord diagramBB A chord diagramE MajorE)

Key: A chord diagramD MajorD

Difficulty: Intermediate

Intro:

E|-------------------------|-------------------------|
B|-------------------------|-------------------------|
G|-------------------------|-------------------------|
D|-------------------------|-------------------------|
A|-------------5-----------|-------------5-----------|
D|-0-------0-------0-------|-0-------0-------0-------| x4

(take A-5 or d-0 here, the A chord diagramA5A5 makes it easier when the verse comes in)

Verse 1:

E|-------------------------|-------------------------|-------------------------|-------------------------|
B|-------------------------|-------------------------|-------------------------|-------------------------|
G|-3-----------------------|-2-----------------------|-0-----------------------|-2-----------------------|
D|-5-----------------------|-4-----------------------|-5-----------------------|-4-----------------------|
A|-5-----------5-----------|-5-----------5-----------|-5-----------5-----------|-5-----------5-----------|
D|-0-------0-------0-------|-0-------0-------0-------|-0-------0-------0-------|-0-------0-------0-------|

E|-------------------------|-------------------------|-------------------------|-------------------------|
B|-------------------------|-------------------------|-------------------------|-------------------------|
G|-2-----------2-----------|-1-----------------------|-------------------------|-------------------------|
D|-0-----------------------|-2-----------2-----------|-5-----------------------|-------------------------|
A|-2-------2-------2-------|-------------------------|-5-----------5-------5---|-------------5-------5---|
D|-------------------------|-2-------2-------2-------|-5-------5-------5-------|-5-------5-------5-------|

(I actually think Bruno goes like this for the last two bars above:

E|-------------------------|-------------------------|
B|-------------------------|-------------------------|
G|-0-----------------------|-------------------------|
D|-0-----------0-----------|-------------0-----------|
A|-0-------0-------0-------|-0-------0-------0-------|
D|-------------------------|-------------------------|

But I think it sound better with the 5's, as you prefer. Anyway, next verse)

Verse 2:

E|-------------------------|-------------------------|-------------------------|-------------------------|
B|-------------------------|-------------------------|-------------------------|-------------------------|
G|-3-----------------------|-2-----------------------|-0-----------------------|-2-----------------------|
D|-5-----------------------|-4-----------------------|-5-----------------------|-4-----------------------|
A|-5-----------5-----------|-5-----------5-----------|-5-----------5-----------|-5-----------5-----------|
D|-0-------0-------0-------|-0-------0-------0-------|-0-------0-------0-------|-0-------0-------0-------|

E|-------------------------|-------------------------|-------------------------|-------------------------|
B|-------------------------|-------------------------|-------------------------|-------------------------|
G|-2-----------2-----------|-1-----------------------|-------------------------|-------------------------|
D|-0-----------------------|-2-----------2-----------|-5-----------------------|-------------------------|
A|-2-------2-------2-------|-------------------------|-5-----------5-------5---|-------------5-------5---|
D|-------------------------|-2-------2-------2-------|-5-------5-------5-------|-5-------5-------5-------|

E|-------------------------|-------------------------|-------------------------|-------------------------|
B|-------------------------|-------------------------|-------------------------|-------------------------|
G|-2-----------2-----------|-1-----------------------|-------------------------|-------------------------|
D|-0-----------------------|-2-----------2-----------|-5-----------------------|-------------------------|
A|-2-------2-------2-------|-------------------------|-5-----------5-------5---|-------------5-------5---|
D|-------------------------|-2-------2-------2-------|-5-------5-------5-------|-5-------5-------5-------|

E|-------------------------|-------------------------|
B|-------------------------|-------------------------|
G|-------------------------|-------------------------|
D|-------------0-----------|-------------0-----------|
A|-------------------------|-------------------------|
D|-0-------0-------0-------|-0-------0-------0-------| x8

While running this eight times I like adding a slap with my left hand on the guitar for percussion like so:

  |------------ X ----------|---- X --------- X ------|


Verse 3:

E|-------------------------|-------------------------|-------------------------|-------------------------|
B|-------------------------|-------------------------|-------------------------|-------------------------|
G|-3-----------------------|-2-----------------------|-0-----------------------|-2-----------------------|
D|-5-----------------------|-4-----------------------|-5-----------------------|-4-----------------------|
A|-5-----------5-----------|-5-----------5-----------|-5-----------5-----------|-5-----------5-----------|
D|-0-------0-------0-------|-0-------0-------0-------|-0-------0-------0-------|-0-------0-------0-------|

E|-------------------------|-------------------------|-------------------------|-------------------------|
B|-------------------------|-------------------------|-------------------------|-------------------------|
G|-2-----------2-----------|-1-----------------------|-------------------------|-------------------------|
D|-0-----------------------|-2-----------2-----------|-5-----------5-----------|-5-----------5-----------|
A|-2-------2-------2-------|-------------------------|-5-------------------5---|-5-------------------5---|
D|-------------------------|-2-------2-------2-------|-5-------5-------5-------|-5-------5-------5-------|

Verse 4:

E|-------------------------|-------------------------|-------------------------|-------------------------|
B|-------------------------|-------------------------|-------------------------|-------------------------|
G|-3-----------------------|-2-----------------------|-0-----------------------|-2-----------------------|
D|-5-----------------------|-4-----------------------|-5-----------------------|-4-----------------------|
A|-5-----------5-----------|-5-----------5-----------|-5-----------5-----------|-5-----------5-----------|
D|-0-------0-------0-------|-0-------0-------0-------|-0-------0-------0-------|-0-------0-------0-------|

E|-------------------------|-------------------------|-------------------------|-------------------------|
B|-------------------------|-------------------------|-------------------------|-------------------------|
G|-2-----------2-----------|-1-----------------------|-------------------------|-------------------------|
D|-0-----------------------|-2-----------2-----------|-5-----------5-----------|-------------5-----------|
A|-2-------2-------2-------|-------------------------|-5-------------------5---|---------------------5---|
D|-------------------------|-2-------2-------2-------|-5-------5-------5-------|-5-------5-------5-------|

E|-------------------------|-------------------------|-------------------------|-------------------------|
B|-------------------------|-------------------------|-------------------------|-------------------------|
G|-2-----------2-----------|-1-----------------------|-------------------------|-------------------------|
D|-0-----------------------|-2-----------2-----------|-5-----------5-----------|-------------5-----------|
A|-2-------2-------2-------|-------------------------|-5-------------------5---|---------------------5---|
D|-------------------------|-2-------2-------2-------|-5-------5-------5-------|-5-------5-------5-------|


Chorus:
                                                        Barre on second fret for ease of access
E|-------------------------|-------------------------|-------------------------|-------------------------|
B|-------------------------|-------------------------|-------------------------|-3-----------------------|
G|-0-----------------------|-2-----------------------|-4-----------------------|-4-----------------------|
D|-2-----------2-------2---|-2-----------2-------2---|-2-----------2-------2---|-2-----------2-------2---|
A|-------------------------|-------------------------|-------------------------|-------------------------|
D|-2-------2-------2-------|-2-------2-------2-------|-2-------2-------2-------|-2-------2-------2-------|

E|-------------------------|-------------------------|-------------------------|-------------------------|
B|-3-----------------------|-3-----------------------|-------------------------|-------------------------|
G|-4-----------------------|-4-----------------------|-6-----------------------|-6-----------------------|
D|-4-----------4-------4---|-4-----------4-------4---|-7-----------7-------7---|-7-----------7-------7---|
A|-------------------------|-------------------------|-------------------------|-------------------------|
D|-4-------4-------4-------|-4-------4-------4-------|/7-------7-------7-------|-7-------7-------7-------|

E|-------------------------|-------------------------|-------------------------|-2-----------------------|
B|-------------------------|-------------------------|-------------------------|-3-----------------------|
G|-0-----------------------|-2-----------------------|-4-----------------------|-4-----------------------|
D|-2-----------2-------2---|-2-----------2-------2---|-2-----------2-------2---|-2-----------2-------2---|
A|-------------------------|-------------------------|-------------------------|-------------------------|
D|-2-------2-------2-------|-2-------2-------2-------|-2-------2-------2-------|-2-------2-------2-------|

E|-------------------------|-------------------------|-------------------------|-------------------------|
B|-5-----------------------|-5-----------------------|-5-----------------------|-5-----------------------|
G|-7-----------------------|-7-----------------------|-6-----------------------|-6-----------------------|
D|-7-----------7-------7---|-7-----------7-------7---|-7-----------7-------7---|-7-----------7-------7---|
A|-------------------------|-------------------------|-------------------------|-------------------------|
D|/7-------7-------7-------|-7-------7-------7-------|-7-------7-------7-------|-7-------7-------7-------|

E|-------------------------|-------------------------|-------------------------|-------------------------|
B|-------------------------|-------------------------|-------------------------|-2-----------------------|
G|-0-----------------------|-2-----------------------|-4-----------------------|-4-----------------------|
D|-2-----------2-------2---|-2-----------2-------2---|-2-----------2-------2---|-2-----------2-------2---|
A|-------------------------|-------------------------|-------------------------|-------------------------|
D|-2-------2-------2-------|-2-------2-------2-------|-2-------2-------2-------|-2-------2-------2-------|

E|-------------------------|-------------------------|-------------------------|-------------------------|
B|-3-----------------------|-3-----------------------|-------------------------|-------------------------|
G|-4-----------------------|-4-----------------------|-6-----------------------|-6-----------------------|
D|-4-----------4-------4---|-4-----------4-------4---|-7-----------7-------7---|-7-----------7-------7---|
A|-------------------------|-------------------------|-------------------------|-------------------------|
D|-4-------4-------4-------|-4-------4-------4-------|/7-------7-------7-------|-7-------7-------7-------|

E|-------------------------|-------------------------|-------------------------|-------------------------|
B|-------------------------|-------------------------|-------------------------|-------------------------|
G|-4-----------4-----------|-------------4-----------|-------------4-----------|-------------4-----------|
D|-5-------------------5---|---------------------5---|---------------------5---|---------------------5---|
A|-------------------------|-------------------------|-------------------------|-------------------------|
D|-5-------5-------5-------|-5-------5-------5-------|-5-------5-------5-------|-5-------5-------5-------|

E|-------------------------|-------------------------|-------------------------|-------------------------|
B|-------------------------|-------------------------|-------------------------|-------------------------|
G|-------------4-----------|-------------4-----------|-------------4-----------|-------------4-----------|
D|---------------------5---|---------------------5---|---------------------5---|---------------------5---|
A|-------------------------|-------------------------|-------------------------|-------------------------|
D|-5-------5-------5-------|-5-------5-------5-------|-5-------5-------5-------|-5-------5-------5-------|

E|-------------------------|-------------------------|
B|-------------------------|-------------------------|
G|-------------------------|-------------------------|
D|-------------0-----------|-------------0-----------|
A|-------------------------|-------------------------|
D|-0-------0-------0-------|-0-------0-------0-------| x4

Verse 5:
E|-------------------------|-------------------------|-------------------------|-------------------------|
B|-------------------------|-------------------------|-------------------------|-------------------------|
G|-3-----------------------|-2-----------------------|-0-----------------------|-2-----------------------|
D|-5-----------------------|-4-----------------------|-5-----------------------|-4-----------------------|
A|-5-----------5-----------|-5-----------5-----------|-5-----------5-----------|-5-----------5-----------|
D|-0-------0-------0-------|-0-------0-------0-------|-0-------0-------0-------|-0-------0-------0-------|

E|-------------------------|-------------------------|-------------------------|-------------------------|
B|-------------------------|-------------------------|-------------------------|-------------------------|
G|-2-----------2-----------|-1-----------------------|-------------------------|-------------------------|
D|-0-----------------------|-2-----------2-----------|-5-----------5-----------|-5-----------5-----------|
A|-2-------2-------2-------|-------------------------|-5-------------------5---|-5-------------------5---|
D|-------------------------|-2-------2-------2-------|-5-------5-------5-------|-5-------5-------5-------|

Verse 6:

E|-------------------------|-------------------------|-------------------------|-------------------------|
B|-------------------------|-------------------------|-------------------------|-------------------------|
G|-3-----------------------|-2-----------------------|-0-----------------------|-2-----------------------|
D|-5-----------------------|-4-----------------------|-5-----------------------|-4-----------------------|
A|-5-----------5-----------|-5-----------5-----------|-5-----------5-----------|-5-----------5-----------|
D|-0-------0-------0-------|-0-------0-------0-------|-0-------0-------0-------|-0-------0-------0-------|

E|-------------------------|-------------------------|-------------------------|-------------------------|
B|-------------------------|-------------------------|-------------------------|-------------------------|
G|-2-----------2-----------|-1-----------------------|-------------------------|-------------------------|
D|-0-----------------------|-2-----------2-----------|-5-----------5-----------|-------------5-----------|
A|-2-------2-------2-------|-------------------------|-5-------------------5---|---------------------5---|
D|-------------------------|-2-------2-------2-------|-5-------5-------5-------|-5-------5-------5-------|

E|-------------------------|-------------------------|-------------------------|-------------------------|
B|-------------------------|-------------------------|-------------------------|-------------------------|
G|-2-----------2-----------|-1-----------------------|-------------------------|-------------------------|
D|-0-----------------------|-2-----------2-----------|-5-----------5-----------|-------------5-----------|
A|-2-------2-------2-------|-------------------------|-5-------------------5---|---------------------5---|
D|-------------------------|-2-------2-------2-------|-5-------5-------5-------|-5-------5-------5-------|

Chorus:

E|-------------------------|-------------------------|-------------------------|-------------------------|
B|-------------------------|-------------------------|-------------------------|-3-----------------------|
G|-0-----------------------|-2-----------------------|-4-----------------------|-4-----------------------|
D|-2-----------2-------2---|-2-----------2-------2---|-2-----------2-------2---|-2-----------2-------2---|
A|-------------------------|-------------------------|-------------------------|-------------------------|
D|-2-------2-------2-------|-2-------2-------2-------|-2-------2-------2-------|-2-------2-------2-------|

E|-------------------------|-------------------------|-------------------------|-------------------------|
B|-3-----------------------|-3-----------------------|-------------------------|-------------------------|
G|-4-----------------------|-4-----------------------|-6-----------------------|-6-----------------------|
D|-4-----------4-------4---|-4-----------4-------4---|-7-----------7-------7---|-7-----------7-------7---|
A|-------------------------|-------------------------|-------------------------|-------------------------|
D|-4-------4-------4-------|-4-------4-------4-------|/7-------7-------7-------|-7-------7-------7-------|

E|-------------------------|-------------------------|-------------------------|-2-----------------------|
B|-------------------------|-------------------------|-------------------------|-3-----------------------|
G|-0-----------------------|-2-----------------------|-4-----------------------|-4-----------------------|
D|-2-----------2-------2---|-2-----------2-------2---|-2-----------2-------2---|-2-----------2-------2---|
A|-------------------------|-------------------------|-------------------------|-------------------------|
D|-2-------2-------2-------|-2-------2-------2-------|-2-------2-------2-------|-2-------2-------2-------|

E|-------------------------|-------------------------|-------------------------|-------------------------|
B|-5-----------------------|-5-----------------------|-5-----------------------|-5-----------------------|
G|-7-----------------------|-7-----------------------|-6-----------------------|-6-----------------------|
D|-7-----------7-------7---|-7-----------7-------7---|-7-----------7-------7---|-7-----------7-------7---|
A|-------------------------|-------------------------|-------------------------|-------------------------|
D|/7-------7-------7-------|-7-------7-------7-------|-7-------7-------7-------|-7-------7-------7-------|

E|-------------------------|-------------------------|-------------------------|-------------------------|
B|-------------------------|-------------------------|-------------------------|-2-----------------------|
G|-0-----------------------|-2-----------------------|-4-----------------------|-4-----------------------|
D|-2-----------2-------2---|-2-----------2-------2---|-2-----------2-------2---|-2-----------2-------2---|
A|-------------------------|-------------------------|-------------------------|-------------------------|
D|-2-------2-------2-------|-2-------2-------2-------|-2-------2-------2-------|-2-------2-------2-------|

E|-------------------------|-------------------------|-------------------------|-------------------------|
B|-3-----------------------|-3-----------------------|-------------------------|-------------------------|
G|-4-----------------------|-4-----------------------|-6-----------------------|-6-----------------------|
D|-4-----------4-------4---|-4-----------4-------4---|-7-----------7-------7---|-7-----------7-------7---|
A|-------------------------|-------------------------|-------------------------|-------------------------|
D|-4-------4-------4-------|-4-------4-------4-------|/7-------7-------7-------|-7-------7-------7-------|

E|-------------------------|-------------------------|-------------------------|-------------------------|
B|-------------------------|-------------------------|-------------------------|-------------------------|
G|-------------------------|-------------------------|-------------------------|-------------------------|
D|-------------5-----------|-------------5-----------|-------------5-----------|-------------5-----------|
A|-------------------------|-------------------------|-------------------------|-------------------------|
D|-5-------5-------5-------|-5-------5-------5-------|-5-------5-------5-------|-5-------5-------5-------|

E|-------------------------|-------------------------|-------------------------|-------------------------|
B|-------------------------|-------------------------|-------------------------|-------------------------|
G|-------------------------|-------------------------|-------------------------|-------------------------|
D|-5h7---------7-----------|-----------------7-------|-------------7h9---------|-------------7-----------|
A|-5-----------------------|-----------------5-------|-------------5-----------|-------------------------|
D|-5-------5-------5-------|-5-------5-------5-------|-5-------5-------5-------|-5-------5-------5-------|


Interlude (don't play this too litterary, rather view each bar as a chord and play your own way):
N.B Every bar here twice as long as the ones in verse and chorus since it was easier to read.
E|-------------7-----------|-------------7-----------|-------------7-----------|-------------7-----------|
B|-------8-----------8-----|-------8-----------8-----|-------7-----------7-----|-------7-----------7-----|
G|-----9-----9-----9-----9-|-----9-----9-----9-----9-|-----8-----8-----8-----8-|-----8-----8-----8-----8-|
D|---9-----9-----9-----9---|---9-----9-----9-----9---|---9-----9-----9-----9---|---9-----9-----9-----9---|
A|-7-----------------------|-7-----------------------|-6-----------------------|-6-----------------------|
D|-------------------------|-------------------------|(9)----------------------|-------------------------|
                                                        Can also take thumb on D-9 if the A-6 hurts too much

E|-------------5-----------|-------------5-----------|-------------5-----------|-------------5-----------|
B|-------7-----------7-----|-8-----7-----------7-----|-------5-----------6-----|-------5-----------6-----|
G|-----7---7-----7-----7---|---7-----7-----7-----7---|-----6---6-----6-----6---|-----6---6-----6-----6---|
D|---7-------7-----7-----7-|-----7-----7-----7-----7-|---7-------7-----7-----7-|---7-------7-----7-----7-|
A|-5-----------------------|-------------------------|-4-----------------------|-4-----------------------|
D|-------------------------|-------------------------|(7)----------------------|-------------------------|
                                                       Here as well, thumb on D-7 if A-4 is too tricky

E|------------------------------------|------------------------------------|
B|-------------------12---------------| 13----------------12---------------|
G|----------12----------------12------|----------12----------------12------|
D|-------12----12----------12-------12|-------12-------12-------12-------12|
A|------------------------------------|------------------------------------|
D|-10-------------10----10-------10---|----10-------10-------10-------10---|

E|------------------------------------|------------------------------------|
B|-------------------12---------------|-------------------12---------------|
G|----------12----------------12------|----------12----------------12------|
D|-------12----12----------12---------|-------12----12----------12---------|
A|------------------------------------|------------------------------------|
D|-9--------------9-----9-------------|-9--------------9-----9-------------|

E|-------------------------|-2-----------------------|-------------------------|-------------2-----------|
B|-------------5-----------|-------5-----------5-----|-------------5-----------|-4-----------0h1---------|
G|-------4-----------4-----|-------------4-----------|-------4-----------4-----|-5-----------2-----------|
D|-----4---4-------4---4---|-----4-----4-----4-----4-|-----4---4-------4---4---|-4-----------2-----------|
A|-2---------2---2-------2-| --2-----2-----2-----2---|-2---------2---2-------2-|-3-----------0-----------|
D|-------------------------|-------------------------|-------------------------|-------------------------|

Chorus:

E|-------------------------|-------------------------|-------------------------|-------------------------|
B|-------------------------|-------------------------|-------------------------|-3-----------------------|
G|-0-----------------------|-2-----------------------|-4-----------------------|-4-----------------------|
D|-2-----------2-------2---|-2-----------2-------2---|-2-----------2-------2---|-2-----------2-------2---|
A|-------------------------|-------------------------|-------------------------|-------------------------|
D|-2-------2-------2-------|-2-------2-------2-------|-2-------2-------2-------|-2-------2-------2-------|

E|-------------------------|-------------------------|-------------------------|-------------------------|
B|-3-----------------------|-3-----------------------|-------------------------|-------------------------|
G|-4-----------------------|-4-----------------------|-6-----------------------|-6-----------------------|
D|-4-----------4-------4---|-4-----------4-------4---|-7-----------7-------7---|-7-----------7-------7---|
A|-------------------------|-------------------------|-------------------------|-------------------------|
D|-4-------4-------4-------|-4-------4-------4-------|/7-------7-------7-------|-7-------7-------7-------|

E|-------------------------|-------------------------|-------------------------|-2-----------------------|
B|-------------------------|-------------------------|-------------------------|-3-----------------------|
G|-0-----------------------|-2-----------------------|-4-----------------------|-4-----------------------|
D|-2-----------2-------2---|-2-----------2-------2---|-2-----------2-------2---|-2-----------2-------2---|
A|-------------------------|-------------------------|-------------------------|-------------------------|
D|-2-------2-------2-------|-2-------2-------2-------|-2-------2-------2-------|-2-------2-------2-------|

E|-------------------------|-------------------------|-------------------------|-------------------------|
B|-5-----------------------|-5-----------------------|-5-----------------------|-5-----------------------|
G|-7-----------------------|-7-----------------------|-6-----------------------|-6-----------------------|
D|-7-----------7-------7---|-7-----------7-------7---|-7-----------7-------7---|-7-----------7-------7---|
A|-------------------------|-------------------------|-------------------------|-------------------------|
D|/7-------7-------7-------|-7-------7-------7-------|-7-------7-------7-------|-7-------7-------7-------|

E|-------------------------|-------------------------|-------------------------|-------------------------|
B|-------------------------|-------------------------|-------------------------|-2-----------------------|
G|-0-----------------------|-2-----------------------|-4-----------------------|-4-----------------------|
D|-2-----------2-------2---|-2-----------2-------2---|-2-----------2-------2---|-2-----------2-------2---|
A|-------------------------|-------------------------|-------------------------|-------------------------|
D|-2-------2-------2-------|-2-------2-------2-------|-2-------2-------2-------|-2-------2-------2-------|

E|-------------------------|-------------------------|-------------------------|-------------------------|
B|-3-----------------------|-3-----------------------|-------------------------|-------------------------|
G|-4-----------------------|-4-----------------------|-6-----------------------|-6-----------------------|
D|-4-----------4-------4---|-4-----------4-------4---|-7-----------7-------7---|-7-----------7-------7---|
A|-------------------------|-------------------------|-------------------------|-------------------------|
D|-4-------4-------4-------|-4-------4-------4-------|/7-------7-------7-------|-7-------7-------7-------|

E|-------------------------|-------------------------|-------------------------|-------------------------|
B|-------------------------|-------------------------|-------------------------|-------------------------|
G|-4-----------4-----------|-------------4-----------|-------------4-----------|-------------4-----------|
D|-5-------------------5---|---------------------5---|---------------------5---|---------------------5---|
A|-------------------------|-------------------------|-------------------------|-------------------------|
D|-5-------5-------5-------|-5-------5-------5-------|-5-------5-------5-------|-5-------5-------5-------|

E|-------------------------|-------------------------|-------------------------|-------------------------|
B|-------------------------|-------------------------|-------------------------|-------------------------|
G|-------------4-----------|-------------4-----------|-------------4-----------|-------------4-----------|
D|---------------------5---|---------------------5---|---------------------5---|---------------------5---|
A|-------------------------|-------------------------|-------------------------|-------------------------|
D|-5-------5-------5-------|-5-------5-------5-------|-5-------5-------5-------|-5-------5-------5-------|


END


After doing some research I'm quite positive Bruno doesn't play this song at all like I do, I play it in drop
A chord diagramD MajorD and it seems he actually tunes the whole guitar down two steps (with the first two chords being | Am/E | A chord diagramE MajorE |
which sound very nice). Anyway, I guess my way works if you want to do a cover of the song :)

Don't hesitate to make improvements to this tab! And do pay forward by sharing them in the comments if you
have any!



************************************

| /    Slide up
| h    Hammer-on
| (n)  Ghost note


************************************

Other versions of The First Thing You See

The first thing you seeChords

Almost there ...

Sign in to get your own page with links to favourite songs and more. You are just one click away...

Login with Facebook Login with Google