Log in

One click and you are in

Login with Facebook Login with Google

Why sign up and log in

Guitar Tabs Explorer
Bruno Major guitar tabs for Old fashioned

Guitar tabs with lyrics

Tuning: Standard (E A D G B E)

Key: A chord diagramD MajorD

Difficulty: Intermediate
Intro:
          A chord diagramD MajorD         A chord diagramD6D6       A chord diagramDmaj7Dmaj7    D6/G
e|--------5---------7----------5-------7---------|
B|--------7---------7----------7-------7---------|
G|--------7---------7----------6-------7---------|  x1
D|--------7---------9----------7-------9---------|
A|--------5---------10---------5-------10--------|
E|-----------------------------------------------|


Verse:
          A chord diagramD MajorD       D6/G       A chord diagramDmaj7Dmaj7     A chord diagramD MajorD       A chord diagramAsus4Asus4    A chord diagramGm7Gm7      A chord diagramCsusCsus       A chord diagramD MajorD
e|--------5---------7----------5-------5---------------------------3--------5--------------|
B|--------7---------7----------7-------7---------5-------3---------6--------7--------------|
G|--------7---------7----------6-------7---------7-------3---------5--------7--------------|  x2
D|--------7---------9----------7-------7---------7-------3---------3--------7--------------|
A|--------5---------10---------5-------5---------7-----------------3--------5--------------|
E|-----------------------------------------------5-------3---------------------------------|


Chorus:
        A chord diagramAbm7b5Abm7b5     A chord diagramGmaj7Gmaj7       A chord diagramAm7b5Am7b5    A chord diagramA majorA       F#7/A#   A chord diagramB minorBm      A7/C#      F#7b13
e|------------------7----------------------------6-------2--------------------------------|
B|------------------7------------------5---------5-------3--------5--------3--------------|
G|--------4---------7----------4-------6---------6-------4--------6--------3--------------|
D|--------4---------5----------4-------7-----------------4--------5--------2--------------|
A|--------5--------------------5 ------7-----------------2--------4--------4--------------|
E|--------4--------------------4-------5---------6----------------------------------------|

          A chord diagramE minorEm     A chord diagramEmMaj7Emmaj7       A chord diagramE minor 7Em7    A chord diagramAsus4Asus4       A chord diagramD MajorD
e|--------7---------7----------7-----------------5-----------|
B|--------8---------8----------8-------5---------7-----------|
G|--------9---------8----------7-------7---------7-----------|
D|--------9---------9----------9-------7---------7-----------|
A|--------7---------7----------7-------7---------5-----------|
E|-----------------------------6-------5---------------------|


Verse:
          A chord diagramD MajorD       D6/G       A chord diagramDmaj7Dmaj7     A chord diagramD MajorD       A chord diagramAsus4Asus4    A chord diagramGm7Gm7      A chord diagramCsusCsus       A chord diagramD MajorD
e|--------5---------7----------5-------5---------------------------3--------5--------------|
B|--------7---------7----------7-------7---------5-------3---------6--------7--------------|
G|--------7---------7----------6-------7---------7-------3---------5--------7--------------|  x2
D|--------7---------9----------7-------7---------7-------3---------3--------7--------------|
A|--------5---------10---------5-------5---------7-----------------3--------5--------------|
E|-----------------------------------------------5-------3---------------------------------|


Chorus:
        A chord diagramAbm7b5Abm7b5     A chord diagramGmaj7Gmaj7       A chord diagramAm7b5Am7b5    A chord diagramA majorA       F#7/A#   A chord diagramB minorBm      A7/C#      F#7b13
e|------------------7----------------------------6-------2--------------------------------|
B|------------------7------------------5---------5-------3--------5--------3--------------|
G|--------4---------7----------4-------6---------6-------4--------6--------3--------------|
D|--------4---------5----------4-------7-----------------4--------5--------2--------------|
A|--------5--------------------5 ------7-----------------2--------4--------4--------------|
E|--------4--------------------4-------5---------6----------------------------------------|


          A chord diagramE minorEm     A chord diagramEmMaj7Emmaj7       A chord diagramE minor 7Em7    A chord diagramAsus4Asus4       A chord diagramD MajorD
e|--------7---------7----------7-----------------5-----------|
B|--------8---------8----------8-------5---------7-----------|
G|--------9---------8----------7-------7---------7-----------|
D|--------9---------9----------9-------7---------7-----------|
A|--------7---------7----------7-------7---------5-----------|
E|-----------------------------6-------5---------------------|

                                   ^ On last chorus end and restart the chorus here

Chord voicings may change on the verse the second time around.

Other versions of Old Fashioned

Old fashionedChords

Almost there ...

Sign in to get your own page with links to favourite songs and more. You are just one click away...

Login with Facebook Login with Google