Search tabs and chords

Search for song, artist or band

Log in

One click and you are in

Login with Facebook Login with Google

Why sign up and log in

Guitar Tabs Explorer
Bruno Major guitar tabs for Nothing

Guitar tabs with lyrics

Verse 1: and Verse 2:

Tracksuits and red wine, movies for two (Dumb connversation, we lose track of time)
e|--------------------------------------------------------------------------|
B|--------------7-----------------------------------------------------------|
G|-11----------------8---7----------7---------------------------------------|
D|-------12--------8-----------9---------10---------------------------------|
A|----12--------------------9----------9------------------------------------|
D|-12-----------8--------9----------7---------------------------------------|

We'll turn off our phones and we'll take off our shoes (Have I told you lately, I'm grateful you're mine)
e|--------------------------------------------------------------------------|
B|-0----------0-------------------------------------------------------------|
G|-------0----------0---1----------4----------------------------------------|
D|----0----------0------------0----------3----------------------------------|
A|-------------------------2----------5-------------------------------------|
D|-5----------4---------2----------5----------------------------------------|

And we'll play nintendo, but I'll always lose (We'll watch The Notebook, fot the seventeenth time)
e|--------------------------------------------------------------------------|
B|--------------11----------------------------------------------------------|
G|-11------------------11---7----------7------------------------------------|
D|-------12---------12-----------9----------10------------------------------|
A|----12-----------------------9----------9---------------------------------|
D|-12-----------11----------9----------7------------------------------------|

'Cos you'll watch the tv, whilst I'm watching you (I'll say it's stupid, then you'll catch me cryin')
e|--------------------------------------------------------------------------|
B|-0----------0-------------------------------------------------------------|
G|-------0----------0---1----------4----------------------------------------|
D|----0----------0------------0----------3----------------------------------|
A|-------------------------2----------5-------------------------------------|
D|-5----------4---------2----------5----------------------------------------|

Chorus 1:

Well we might not be dancing, in the light of the moon
e|--------------------------------------------------------------------------|
B|--------------7-----------------------------------------------------------|
G|-11----------------8---7----------7---------------------------------------|
D|-------12--------8-----------9---------10---------------------------------|
A|----12--------------------9----------9------------------------------------|
D|-12-----------8--------9----------7---------------------------------------|

Mmmmmmmm...
e|--------------------------------------------------------------------------|
B|-0----------0-------------------------------------------------------------|
G|-------0----------0---2----------1----------------------------------------|
D|----0----------0------------0---------------------------------------------|
A|-------------------------2------------------------------------------------|
D|-5----------4---------2----------2----------------------------------------|

There's nothing, like doing nothing, with you
e|--------------------------------------------------------------------------|
B|--------------------------------------------------------------------------|
G|-0--------0-------------------3-------------------------------------------|
D|-------2-----2-------------3----------------------------------------------|
A|----2-----------2-------2-------------------------------------------------|
D|-2-------------------3----------------------------------------------------|

e|----------5---------------------------------------------------------------|
B|-7--------------7--8------------------------------------------------------|
G|-------7-----------9-----7--6---------------------------------------------|
D|----7--------7--------9-----------5---------------------------------------|
A|-------------------7-----------7------------------------------------------|
D|-0--------0-----------------7---------------------------------------------|

Chorus 2:

Though we're not making out, on a boat in the rain
e|--------------------------------------------------------------------------|
B|--------------7-----------------------------------------------------------|
G|-11----------------8---7----------7---------------------------------------|
D|-------12--------8-----------9---------10---------------------------------|
A|----12--------------------9----------9------------------------------------|
D|-12-----------8--------9----------7---------------------------------------|

Mmmmmmmm...
e|--------------------------------------------------------------------------|
B|-0----------0-------------------------------------------------------------|
G|-------0----------0---2----------1----------------------------------------|
D|----0----------0------------0---------------------------------------------|
A|-------------------------2------------------------------------------------|
D|-5----------4---------2----------2----------------------------------------|

There's nothing, like doing nothing, with you
e|--------------------------------------------------------------------------|
B|--------------------------------------------------------------------------|
G|-0--------0-------------------3-------------------------------------------|
D|-------2-----2-------------3----------------------------------------------|
A|----2-----------2-------2-------------------------------------------------|
D|-2-------------------3----------------------------------------------------|

e|----------5---------------------------------------------------------------|
B|-7--------------7--5------------------------------------------------------|
G|-------7-----------------4--3---------------------------------------------|
D|----7--------7--------5-----------2---------------------------------------|
A|-------------------4-----------4------------------------------------------|
D|-0--------0-----------------4---------------------------------------------|

Bridge:

So shut all the windows, and lock all the doors, we're not looking for no one, we don't need nothing more
e|-------------------------------------------------------------------7------|
B|----------------------------------------------5--------------------7------|
G|----------5-----------------5-----------------5-----------------7-----7---|
D|-------7-----7-----------6-----6-----------5-----5-----------6-----------6|
A|----7-----------7-----7-----------7-----7-----------7-----7---------------|
D|-7-----------------7-----------------7-----------------7------------------|

You'll bite my lip, and I'll want you more, until we end up, in a heap on the floor
e|-------------------------------------------------------------------7------|
B|----------------------------------------------5--------------------7------|
G|----------5-----------------5-----------------5-----------------7-----7---|
D|-------7-----7-----------6-----6-----------5-----5-----------6-----------6|
A|----7-----------7-----7-----------7-----7-----------7-----7---------------|
D|-7-----------------7-----------------7-----------------7------------------|

Mmmmmm..., mmmmm...
e|--------------------------------------------------------------------------|
B|-3--------3--------2--------2---------------------------------------------|
G|-------3--------3--------2--------2---------------------------------------|
D|----3--------2--------2--------1------------------------------------------|
A|----------3-----------------2---------------------------------------------|
D|-5-----------------4------------------------------------------------------|

Mmmmmmm...
e|----------7---------------------------------------------------------------|
B|-7-----------7--------------7---------------------------------------------|
G|-------7--------7--------6------------------------------------------------|
D|----9-----------------5---------------------------------------------------|
A|-7--------7---------------------------------------------------------------|
D|-------------------7------------------------------------------------------|

Outro:
You could be dancing on table tops, wearing high heels
e|--------------------------------------------------------------------------|
B|--------------7-----------------------------------------------------------|
G|-11----------------8---7----------7---------------------------------------|
D|-------12--------8-----------9---------10---------------------------------|
A|----12--------------------9----------9------------------------------------|
D|-12-----------8--------9----------7---------------------------------------|

Drinking until the world, spins like a wheel
e|--------------------------------------------------------------------------|
B|-0----------0-------------------------------------------------------------|
G|-------0----------0---1----------4----------------------------------------|
D|----0----------0------------0----------3----------------------------------|
A|-------------------------2----------5-------------------------------------|
D|-5----------4---------2----------5----------------------------------------|

But tonight my apartment, had so much appeal
e|--------------------------------------------------------------------------|
B|--------------7-----------------------------------------------------------|
G|-11----------------8---7----------7---------------------------------------|
D|-------12--------8-----------9---------10---------------------------------|
A|----12--------------------9----------9------------------------------------|
D|-12-----------8--------9----------7---------------------------------------|

Mmmmmmm....
e|--------------------------------------------------------------------------|
B|-0----------0-------------------------------------------------------------|
G|-------0----------0---2----------1----------------------------------------|
D|----0----------0------------0---------------------------------------------|
A|-------------------------2------------------------------------------------|
D|-5----------4---------2----------2----------------------------------------|

There's nothing, like doing nothing
e|--------------------------------------------------------------------------|
B|--------------------------------------------------------------------------|
G|-0--------0-------------------3-------------------------------------------|
D|-------2-----2-------------3----------------------------------------------|
A|----2-----------2-------2-------------------------------------------------|
D|-2-------------------3----------------------------------------------------|

With you, Mmmmmmmm.... , No there's nothing, like doing nothing
e|----------------------------7---------------------------------------------|
B|----------3-----------------7---------------------------------------------|
G|-------2-----2-----------7-----------------4-----------------6------------|
D|----4-----------4-----6-----------------5-----5-----------5---------------|
A|-2-----------------7-----------------5-----------5-----7------------------|
D|----------------------------------5-----------------7---------------------|

With you
e|-----10----------10--------10-----10--------------------------------------|
B|-10------10---9------9--8------8--10--------------------------------------|
G|-11----------10---------9---------11--------------------------------------|
D|--------------------------------------------------------------------------|
A|--------------------------------------------------------------------------|
D|-0--------------------------------0---------------------------------------|

Other versions of Nothing

NothingChords

Almost there ...

Sign in to get your own page with links to favourite songs and more. You are just one click away...

Login with Facebook Login with Google