Log in

One click and you are in

Login with Facebook Login with Google

Why sign up and log in

Guitar Tabs Explorer
Bruna Karla guitar chords for Força

Guitar chords with lyrics

Intro:  A chord diagramBb majorBb  A chord diagramF/AF/A  A chord diagramCm7Cm7  A chord diagramEb MajorEb

E|--------------------------------------------------------------|
B|---------------13---11----------------13--11------------------|
G|----------10---------------------10---------------------------|
D|--12--13----------------12--13----------------13--12----------|
A|-------------------------------------------------------10---13|
E|--------------------------------------------------------------|

  A chord diagramBb majorBb                             A chord diagramF/AF/A
Quando perco o chão, Tu me levantas
                                  A chord diagramCm7Cm7
A chord diagramE MajorE quando não consigo encontrar solução
 A chord diagramBb/DBb/D    A chord diagramEb MajorEb    A chord diagramFF                  A chord diagramBb majorBb
Tu estás ali pra me estenderes a mão

                               A chord diagramF/AF/A
A chord diagramE MajorE quando a dor aperta o meu coração
                               A chord diagramCm7Cm7
A chord diagramE MajorE fico sem resposta em meio à solidão
   A chord diagramBb/DBb/D   A chord diagramEb MajorEb          A chord diagramFF               A chord diagramG minorGm
Escuto a Tua voz me chamando para vencer

     A chord diagramEb/GEb/G             A chord diagramBb majorBb           A chord diagramF/AF/A
Pra confiar e em Tua destra descansar
       A chord diagramG minorGm           A chord diagramEb MajorEb                A chord diagramFF
A chord diagramE MajorE com Teu poder posso ir além das minhas forças

A chord diagramBb majorBb            A chord diagramF/AF/A
A chord diagramA majorA minha força está em Ti
     A chord diagramCm7Cm7
Meu Deus que nunca falha
 A chord diagramBb/DBb/D  A chord diagramEb MajorEb            A chord diagramFF
Meu  Deus é minha muralha

 A chord diagramBb majorBb                 A chord diagramF/AF/A                 A chord diagramCm7Cm7
Sei que eu não vou cair e não vou desistir
             A chord diagramBb/DBb/D    A chord diagramEb MajorEb           A chord diagramFF
Pois Ele me sustenta e me faz vencer

A chord diagramBb majorBb  A chord diagramF/AF/A  A chord diagramCm7Cm7  A chord diagramEb MajorEb

E|-------------------------------------------------------------------|
B|-----------------13--11----------------13---11---------------------|
G|------------10--------------------10-------------------------------|
D|---12--13----------------12--13------------------13--12--10--------|
A|-------------------------------------------------------------10--13|
E|-------------------------------------------------------------------|

E|---------------------------------------|
B|---------------------------------------|
G|---------------------------------------|
D|----10---12--10------------------------|
A|-13------------------------------------|
E|---------------------------------------|

A chord diagramBb majorBb                           A chord diagramF/AF/A
A chord diagramE MajorE quando a dor aperta o meu coração
                               A chord diagramCm7Cm7
A chord diagramE MajorE fico sem resposta em meio à solidão
   A chord diagramBb/DBb/D    A chord diagramEb MajorEb     A chord diagramFF                A chord diagramG minorGm
Escuto a Tua voz me chamando para vencer

        A chord diagramEb/GEb/G          A chord diagramBb majorBb           A chord diagramF/AF/A
Pra confiar e em Tua destra descansar
       A chord diagramG minorGm             A chord diagramEb MajorEb              A chord diagramFF
A chord diagramE MajorE com Teu poder posso ir além das minhas forças

A chord diagramBb majorBb            A chord diagramF/AF/A
A chord diagramA majorA minha força está em Ti
     A chord diagramCm7Cm7
Meu Deus que nunca falha
 A chord diagramBb/DBb/D    A chord diagramEb MajorEb         A chord diagramFF    A chord diagramBb majorBb
Meu Deus é minha muralha

                    A chord diagramF/AF/A                 A chord diagramCm7Cm7
Sei que eu não vou cair e não vou desistir
             A chord diagramBb/DBb/D    A chord diagramEb MajorEb        A chord diagramFF
Pois Ele me sustenta e me faz vencer

A chord diagramBb majorBb            A chord diagramF/AF/A
A chord diagramA majorA minha força está em Ti
     A chord diagramCm7Cm7
Meu Deus que nunca falha
 A chord diagramBb/DBb/D    A chord diagramEb MajorEb       A chord diagramFF
Meu Deus é minha muralha

 A chord diagramBb majorBb                 A chord diagramF/AF/A              A chord diagramCm7Cm7
Sei que eu não vou cair e não vou desistir
             A chord diagramBb/DBb/D       A chord diagramEb MajorEb     A chord diagramFF
Pois Ele me sustenta e me faz vencer

             A chord diagramFF

Almost there ...

Sign in to get your own page with links to favourite songs and more. You are just one click away...

Login with Facebook Login with Google