Log in

One click and you are in

Login with Facebook Login with Google

Why sign up and log in

Guitar Tabs Explorer
Jack Bruce bass tabs for Tickets to waterfalls

Tickets To Waterfalls bass tab by Jack Bruce

Jack Bruce bass tabs for Tickets to waterfalls

Bass tabs

-------------------------------------------------------------------------------
                             SONG NAME - Band Name
-------------------------------------------------------------------------------
Tabbed by: Emek Kuxu
E-mail:
Tuning:EADG
     Am          C          F         F     G        Am    C         F
G|---------------------------------------------------------------------------|
D|-----------------------------------1-3-3--5-3-5--7-5-7-------------3---3---|
A|-------------2-3-2-3-3----------------------------------3-2-3-3------------|
E|--5-3-4-5---------------0-1-0-1-1-------------------------------1----1-----|

    Bb              C      D      E        Ab         Bb
G|---------------------------------------------------------------------------|
D|------8-5-------------2----2-5----------------6-6-------8-8----------------|
A|----------8-5-----3-5----5------7-----------6---------8--------------------|
E|--6-----------6-------------------7-0----s4--------s6----------------------|

   C           D         E
G|-------5-5-------7-7-------9-9---------------------------------------------|
D|-----5---------7---------9-----9-------------------------------------------|
A|--s3--------s5--------s7---------7-----------------------------------------|
E|-----------------------------------0---------------------------------------|

      Am   F    D   G   E   F   G  Am
G|-----------------------7---7---7-7-7-7-7-7-7-------------------------------|
D|----7---7----7---7---------------------------------------------------------|
A|---------------------5---5---5---------------------------------------------|
E|--5---5----5---5-----------------------------------------------------------|

     Am          C          F         F     G        Am    C         F
G|---------------------------------------------------------------------------|
D|-----------------------------------1-3-3--5-3-5--7-5-7-------------3---3---|
A|-------------2-3-2-3-3----------------------------------3-2-3-3------------|
E|--5-3-4-5---------------0-1-0-1-1-------------------------------1----1-----|

    Bb              C      D      E        Ab         Bb
G|---------------------------------------------------------------------------|
D|------8-5-------------2----2-5----------------6-6-------8-8----------------|
A|----------8-5-----3-5----5------7-----------6---------8--------------------|
E|--6-----------6-------------------7-0----s4--------s6----------------------|

   C           D         E
G|-------5-5-------7-7-------9-9---------------------------------------------|
D|-----5---------7---------9-----9-------------------------------------------|
A|--s3--------s5--------s7---------7-----------------------------------------|
E|-----------------------------------0---------------------------------------|

Bridge 1:
   G                    D                F
G|----------------------------------7-7--------------------------------------|
D|-------------3-------------7-9-10------------------------------------------|
A|-------5-7-5---7-5----5-s9------------------3-5-3--------------------------|
E|--3-s5-------------7-------------------1-s5-------5-3-1--------------------|


Bridge 2:
   C                  G
G|---------------------------------------------------3-----------------------|
D|-------5-7-5---------------------------------3-5-3---5-3-5-----------------|
A|--3-s7-------7-5-3--------5-7-5---------1-s5--------------------3-5-3-5-3--|
E|---------------------3-s-7------7-5-3----------------------1-s5-----------5|

 Outro :

Improvise in G and A

Just work your way around the song listen to the timing and improvise around it like the king Jack Bruce!

| /  slide up
| \  slide down
| h  hammer-on
| p  pull-off
| ~  vibrato
| +  harmonic
| x  Mute note

Almost there ...

Sign in to get your own page with links to favourite songs and more. You are just one click away...

Login with Facebook Login with Google