Log in

One click and you are in

Login with Facebook Login with Google

Why sign up and log in

Guitar Tabs Explorer
Jack Bruce bass tabs for Never tell your mother shes out of tune

Never Tell Your Mother Shes Out Of Tune bass tab by Jack Bruce

Jack Bruce bass tabs for Never tell your mother shes out of tune

Bass tabs

-------------------------------------------------------------------------------
          Never tell your mother she's out of tune - Jack Bruce
-------------------------------------------------------------------------------
Tabbed by: Emek Kuzu
E-mail:
Tuning: EADG

    A
G|---------------------------------|
D|---------------------------------|
A|---------------------------------| x7
E|-0-2-3-4-5-5-5-5-5-5-5-5---------|
    A          C    D
G|---------------------------------|
D|---------------------------------|
A|------------3-3--5-5-------------|
E|-0-2-3-4-5-----------------------|

    G                            F#
G|---------------------------------|
D|------5-3-3---------5-3-3--------|
A|-------------5------------5------|
E|--3-3-----------3-3------------2-|

   F                         C
G|---------------------------------------------------------------------------|
D|------------------------------------1--------------------------------------|
A|------3-5-3-5---3-5-3-5----3-1--------3-1-3--------------------------------|
E|--1-5---------1----------------3-1-----------------------------------------|

   G           F            C     G#  G
G|---------------------------------------------------------------------------|
D|---------------------------------------------------------------------------|
A|----2-3-4-5----0-1-2-3----3-1----------------------------------------------|
E|--3----------1----------------3-4-4-3-3------------------------------------|

    C
G|---------------------------------|
D|---------------------------------|
A|----0-1-2-3-3-3-3-3--------------| x3
E|--3------------------------------|
    Bb       F
G|---------------------------------|
D|--6-7-8-8------------------------|
A|------------6-7-8-8--------------|
E|---------------------------------|

    C
G|---------------------------------|
D|---------------------------------|
A|----0-1-2-3-3-3-3-3--------------| x3
E|--3------------------------------|

    G#  G
G|---------------------------------|
D|---------------------------------|
A|---------------------------------|
E|--4-4-3-3------------------------|

Just improvise on as Jack Bruce, one of the best improvisators of all time would have wanted you to do!

| /  slide up
| \  slide down
| h  hammer-on
| p  pull-off
| ~  vibrato
| +  harmonic
| x  Mute note

Almost there ...

Sign in to get your own page with links to favourite songs and more. You are just one click away...

Login with Facebook Login with Google