Search tabs and chords

Search for song, artist or band

Log in

One click and you are in

Login with Facebook Login with Google

Why sign up and log in

Guitar Tabs Explorer
Jackson Browne guitar tabs for These days

Guitar tabs

CAPO 2, (if your playing from his live album, tune down half step)

|--0-------0--|--0-------0-0-----|-------------------|
|--1---1---1--|--1---1---1-1-----|----------1-----1--|
|--0-0-----0--|--0-0-----0-0-----|----2p0-------0----|
|--2----------|------------------|--------3---3------|
|--3-----2----|--0---------------|-------------------|
|-------------|--------3---1-----|--1----------------| then repeat

|------------------------|------------------0----------------------------|
|--------0-------1----1--|--1-------1-----------1------------------------|
|------0-------0------0--|--2---2---2---2---------2-2-2p0---0---0---0----|
|--0h2-----2/3------3----|--3-----------------------------3--------------|
|------------------------|-----------------------------------------------|
|------------------------|--1-1---1---1---1---1--------------/3---3---3--|(repeat this part)

Remember CAPO 2!

Other versions of These Days

These daysChords

Almost there ...

Sign in to get your own page with links to favourite songs and more. You are just one click away...

Login with Facebook Login with Google