Search tabs and chords

Search for song, artist or band

Log in

One click and you are in

Login with Facebook Login with Google

Why sign up and log in

Guitar Tabs Explorer
Julia Brown guitar tabs for The way you want

Guitar tabs

Tuning: Standard (E A D G B E)

Key: A chord diagramE minorEm

Difficulty: Novice

Verse 1:
E|--------------------------|--------------------------|--------------------------|----------------------|
B|-----0-----0-----0-----0--|-----0-----------0--------|--------------------------|----0---------0-------|
G|--------------------------|-----------0-----------0--|-----------0--------------|---------0---------0--|
D|--------------------------|--------------------------|-----7--------------------|----------------------|
A|--7-----5-----2-----3-----|--------------------------|--------------5/7---9--10-|----------------------|
E|--------------------------|--3-----3-----3-----3-----|--5-----5-----------------|--8----8----8----8----|
    bless this ugly            heart          so i can    love  you   like i         want

E|--------------------------|--------------------------|--------------------------|--2-------------------|
B|-----0-----------0--------|-----0-----------0--------|--------------------------|--1-------------------|
G|-----------0-----------0--|-----------0-----------0--|-----2-----2-----2-----2--|--2-------------------|
D|--------------------------|--------------------------|-----0-----0-----0-----0--|--0-------------------|
A|--------------------------|--6-----6-----6-----6-----|--0-----------0-----------|----------------------|
E|--3-----3-----3-----3-----|--------------------------|--------3-----------3-----|----------------------|
    if                you      don't want that that's     fine              i can    do this all my life

Verse 2:
E|--------------------------|--------------------------|--------------------------|----------------------|
B|-----0-----0-----0-----0--|-----0-----------0--------|--------------------------|----0---------0-------|
G|--------------------------|-----------0-----------0--|-----------0--------------|---------0---------0--|
D|--------------------------|--------------------------|-----7--------------------|----------------------|
A|--7-----5-----2-----3-----|--------------------------|--------------5/7---9--10-|----------------------|
E|--------------------------|--3-----3-----3-----3-----|--5-----5-----------------|--8----8----8----8----|
    take the things you        want           so i can    feel  some  way     you    want

E|--------------------------|--------------------------|--------------------------|--2-------------------|
B|-----0-----------0--------|-----0-----------0--------|--------------------------|--1-------------------|
G|-----------0-----------0--|-----------0-----------0--|-----2-----2-----2-----2--|--2-------------------|
D|--------------------------|--------------------------|-----0-----0-----0-----0--|--0-------------------|
A|--------------------------|--6-----6-----6-----6-----|--0-----------0-----------|----------------------|
E|--3-----3-----3-----3-----|--------------------------|--------3-----------3-----|----------------------|
    do                i        feel some way you          don't                      i won't know

Solo:
Guitar 1:
E|--------------------------|--------------------------|--------------------------|----------------------|
B|-----0-----0-----0-----0--|-----0-----3-----0--------|--------------------------|----0---------0-------|
G|--------------------------|-----------------------0--|-----------0--------------|---------0---------0--|
D|--------------------------|--------------------------|-----7--------------------|----------------------|
A|--7-----5-----2-----3-----|--------------------------|--------------5/7---9--10-|----------------------|
E|--------------------------|--3-----3-----3-----3-----|--5-----5-----------------|--8----8----8----8----|

E|--------------------------|--------------------------|--------------------------|--2-------------------|
B|-----0-----------0--------|-----0-----------0--------|--------------------------|--1-------------------|
G|-----------0-----------0--|-----------0-----------0--|-----2-----2-----2-----2--|--2-------------------|
D|--------------------------|--------------------------|-----0-----0-----0-----0--|--0-------------------|
A|--------------------------|--6-----6-----6-----6-----|--0-----------0-----------|----------------------|
E|--3-----3-----3-----3-----|--------------------------|--------3-----------3-----|----------------------|

Verse 3:
E|--------------------------|--------------------------|--------------------------|----------------------|
B|-----0-----0-----0-----0--|-----0-----------0--------|--------------------------|----0---------0-------|
G|--------------------------|-----------0-----------0--|-----------0--------------|---------0---------0--|
D|--------------------------|--------------------------|-----7--------------------|----------------------|
A|--7-----5-----2-----3-----|--------------------------|--------------5/7---9--10-|----------------------|
E|--------------------------|--3-----3-----3-----3-----|--5-----5-----------------|--8----8----8----8----|
    i built something          good              it ex-   ists  in    si-i-ide my    head

E|--------------------------|--------------------------|--------------------------|----------------------|
B|-----0-----0-----0-----0--|-----0-----------0--------|--------------------------|--0-------------------|
G|--------------------------|-----------0-----------0--|-----------0--------------|--0-------------------|
D|--------------------------|--------------------------|-----7--------------------|----------------------|
A|--7-----5-----2-----3-----|--------------------------|--------------5/7---9--10-|--10------------------|
E|--------------------------|--3-----3-----3-----3-----|--5-----5-----------------|----------------------|
    just like every-           thing             won't ex-ist   out   si-i-ide my    dreams

***********************************

| /   Slide-up

***********************************

Almost there ...

Sign in to get your own page with links to favourite songs and more. You are just one click away...

Login with Facebook Login with Google