Search tabs and chords

Search for song, artist or band

Log in

One click and you are in

Login with Facebook Login with Google

Why sign up and log in

Guitar Tabs Explorer
Julia Brown guitar tabs for Ontario gothic

Guitar tabs

-------------------------------------------------------------------------------
                             Ontario Gothic - Julia Brown
-------------------------------------------------------------------------------
Tabbed by:
E-mail:

This is Julia Brown/ Ricky Eat Acid's cover of Foxes in Fiction's "Ontario Gothic"

Tuning: Standard

e|---------------------------------------------------------------------------|
B|---------------------------------------------------------------------------|
G|---------4-----------------------------------------------------------------|
D|---5-2-5---5-2-5-----------------------------------------------------------|
A|-3-------------------------------------------------------------------------|
E|---------------------------------------------------------------------------|

e|---------------------------------------------------------------------------|
B|---------------------------------------------------------------------------|
G|---------7-----------------------------------------------------------------|
D|---7-4-7---7-4-7-----------------------------------------------------------|
A|-5-------------------------------------------------------------------------|
E|---------------------------------------------------------------------------|

e|---------------------------------------------------------------------------|
B|---------------------------------------------------------------------------|
G|-----------11--------------------------------------------------------------|
D|---12-9-12---12-9-12-------------------------------------------------------|
A|-10------------------------------------------------------------------------|
E|---------------------------------------------------------------------------|

e|---------------------------------------------------------------------------|
B|---------------------------------------------------------------------------|
G|---9-7---9-----------------------------------------------------------------|
D|-------7---7-9-7-----------------------------------------------------------|
A|-7-------------------------------------------------------------------------|
E|---------------------------------------------------------------------------|

Almost there ...

Sign in to get your own page with links to favourite songs and more. You are just one click away...

Login with Facebook Login with Google