Search tabs and chords

Search for song, artist or band

Log in

One click and you are in

Login with Facebook Login with Google

Why sign up and log in

Guitar Tabs Explorer
Julia Brown guitar tabs for I was my own favorite tv show the summer my tv broke

I Was My Own Favorite Tv Show The Summer My Tv Broke tab by Julia Brown

Julia Brown guitar tabs for I was my own favorite tv show the summer my tv broke

Guitar tabs with lyrics

Verse:
He alternates between these three chords. The change between the last two is subtle, so listen carefully.
   A chord diagramC majorC         A chord diagramFF         A chord diagramFsus2Fsus2
e|-----------8---------8-----------------------------------------------------|
B|--------------10-----8-----------------------------------------------------|
G|----9---------10--------10-------------------------------------------------|
D|----10--------10--------10-------------------------------------------------|
A|----10-----8---------8-----------------------------------------------------|
E|-8-------------------------------------------------------------------------|

Fill:
Here's the fill he plays. You could also play the 7 on the A chord diagramA majorA string (A chord diagramE MajorE note) instead of the 10 on the A chord diagramE MajorE
string (A chord diagramD MajorD note). It's not correct, but playing the 7 makes it WAAYY easier on your fingers. They used two
guitars in this song, I believe, so play whatever is easiest for you to play with one

e|-------------|
B|-------------|
G|-------------|
D|-------------|
A|-7h8-10------|
E|--------10---|

A chord diagramC majorC                   Fill
they are coming now
A chord diagramC majorC                           Fill
riding bikes behind my car
A chord diagramC majorC                            Fill
and no matter how fast i go
A chord diagramC majorC
i can't leave them behind
A chord diagramFF         A chord diagramFsus2Fsus2           A chord diagramC majorC    Fill
a spider pulled from your hair
A chord diagramFF         A chord diagramFsus2Fsus2          A chord diagramC majorC     Fill
a feeling that was never there
A chord diagramC majorC                      Fill
i stayed up last night
A chord diagramC majorC                            Fill
in fact i never slept at all
A chord diagramC majorC                     Fill
and on the drive home
A chord diagramC majorC                          Fill
i saw a glowing ball of light
A chord diagramFF      A chord diagramFsus2Fsus2            A chord diagramC majorC      Fill
rising high above my car
A chord diagramFF      A chord diagramFsus2Fsus2             A chord diagramC majorC      Fill   A chord diagramC majorC
i felt it brush against my cheek

Outro:
E|--------------------|-------------------------|
B|--------------------|-------------------------|
G|--------------------|-------------------------|
D|------9-7-----------|-------9-7---------------|
A|-7-10---------7-5---|--7-10-------10----------|
E|----------8-7-------|-----------8----7-8----- |

and every summer day
i lost you a little more
taking off my clothes
i am all alone

***********************************

| h   Hammer on

Almost there ...

Sign in to get your own page with links to favourite songs and more. You are just one click away...

Login with Facebook Login with Google