Search tabs and chords

Search for song, artist or band

Log in

One click and you are in

Login with Facebook Login with Google

Why sign up and log in

Guitar Tabs Explorer
Jocelyn Brown bass tabs for Somebody elses guy

Somebody Elses Guy bass tab by Jocelyn Brown

Jocelyn Brown bass tabs for Somebody elses guy

Bass tabs

Somebody Else's Guy
Jocelyn Brown
Bass Tabs
by David Caraccio

Video - http://www.youtube.com/watch?v=JKQn9Dy4Two

P = pop
T = thumb
/ = Slide
x = ghost note
h = hammer-on
p = pull-off
Chorus:
         P                     P            P
Gb|---------------------|-------------------9-|
Db|------7--------------|------9--------------|
Ab|---------------------|---------X-X--5/7----|
Eb|-3/5-----5--5/3--X5-6|-5/7-----------------|


         P                     P
Gb|---------------------|---------------------------|
Db|------7--------------|------9--------------------|
Ab|---------------------|------------5--7--X7-5-----|
Eb|-3/5-----5--5/3--X5-6|-5/7-----7-------------8-7-|


         P                     P            P
Gb|---------------------|-------------------9-|
Db|------7--------------|------9--------------|
Ab|---------------------|---------X-X--5/7----|
Eb|-3/5-----5--5/3--X5-6|-5/7-----------------|

         P                P  T  P  T
Gb|-----------------------7-----7----|
Db|------7---------------------------|
Ab|--------------2-3-4-5-----5-----5-|
Eb|-3/5-----5 X5---------------------|

Verse 1:

    T  T  T   T   T    T T T  P T P T P  T T T T
Gb|-----------------|---------9---9---9----------|
Db|-----------------|--------------------X-4-5---|
Ab|-3--X--0h2-0h2-X-|--7-7-X----X---7----------5-|
Eb|-----------------|----------------------------|

    T  T  T   T   T    T T T  P T  T    P T T  T T
Gb|-----------------|---------9---------9----------|
Db|-----------------|------------------------------|
Ab|-3--X--0h2-0h2-X-|--7-7-X----7--5/7---------5-3-|
Eb|-----------------|---------------------2-3------|

    T  T  T   T   T    T T T  P T P T P  T T T T
Gb|-----------------|---------9---9---9----------|
Db|-----------------|--------------------X-4-5---|
Ab|-3--X--0h2-0h2-X-|--7-7-X----X---7----------5-|
Eb|-----------------|----------------------------|

    T  T  T   T   T    T T T  P T P T T P T T P
Gb|-----------------|---------9---9-------------|
Db|-----------------|-------------------5-----6-|
Ab|-3--X--0h2-0h2-X-|--7-7-X----X---------------|
Eb|-----------------|---------------0-3---0-4---|


Verse 2:

   T T  T  T   T   T    T T T  P T P   T P  T T T T
Gb|------------------|---------9---7h9---9----------|
Db|------------------|----------------------X-4-5---|
Ab|3-3--X--0h2-0h2-X-|--7-7-X----X-----7----------5-|
Eb|------------------|------------------------------|

    T  T  T   T   T    P   P   P P P P
Gb|-----------------|--9---7----------|
Db|-----------------|----------5-4----|
Ab|-3--X--0h2-0h2-X-|--7---5-------5-3|
Eb|-----------------|-----------------|

   T T  T  T   T   T    T T T  P T P   T P  T T T T
Gb|------------------|---------9---7h9---9----------|
Db|------------------|----------------------X-4-5---|
Ab|3-3--X--0h2-0h2-X-|--7-7-X----X-----7----------5-|
Eb|------------------|------------------------------|

   T T  T  T   T   T    T T T  P T P    T T  P  T T P
Gb|------------------|---------9---7h9----------------|
Db|------------------|-----------------------5------6-|
Ab|3-3--X--0h2-0h2-X-|--7-7-X----X--------------------|
Eb|------------------|------------------0-3-----0-4---|


Verse 3 (keyboard solo):

   T T  T  T   T   T    T T T  P T P   T P  T T T T
Gb|------------------|---------9---7h9---9----------|
Db|------------------|----------------------X-4-5---|
Ab|3-3--X--0h2-0h2-X-|--7-7-X----X-----7----------5-|
Eb|------------------|------------------------------|

    T  T  T   T   T    T T T  P T  P    T T  P  T T T T
Gb|-----------------|---------9----9p7-------7---------|
Db|-----------------|-------------------0-7h9----------|
Ab|-3--X--0h2-0h2-X-|--7-7-X----X-------------------5-3|
Eb|-----------------|---------------------------2-3----|


(not sure exactly about the ending of that one):
   T T  T  T   T   T    T T T  P T P     T P   T P P T
Gb|------------------|---------9---11/12---9/7---7-7---|
Db|------------------|-------------------------9-----9-|
Ab|3-3--X--0h2-0h2-X-|--7-7-X----X-------X-------------|
Eb|------------------|---------------------------------|

   T T  T  T   T   T P     T T T  P T P   T T P  T T P
Gb|---------------------|---------9---7h9--------------|
Db|------------------7h9|---------------------5------6-|
Ab|3-3--X--0h2-0h2-X----|--7-7-X----X------------------|
Eb|---------------------|-----------------0-3----0-4---|


With reservation for potential errors, tabbing is hard work!
Thanks for your support & please don't forget to subscribe to the Gentlemen's Bass

Almost there ...

Sign in to get your own page with links to favourite songs and more. You are just one click away...

Login with Facebook Login with Google